Sound will begin in 5 seconds

deletionist

01234567891011121314151617181920212223
E
B
G
D
A
E
B
0 1 2 3 4 5 6 7 8 9 10 11 12 13 14 15 16 17 18 19 20 21 22 23
Song Science #1: How Pros Use 6 Chords to Write Hit Songs
(/) Slide Up  (\) Slide Down  (h) Hammer On  (p) Pull Off  (b) Bend (r) Release (v) Vibrato

Stave 1:

Ab|-----------------------------------
E |-----------------------------------
B |-----------------------------------
Gb|--5--------------------------------
B |-----8--8--7--7--5--5--0--5--5--5--
Gb|-----------------------------------

Stave 2:

Ab|----------------------------------------------
E |----------------------------------------------
B |----------------------------------------------
Gb|----5-----------------------------------------
B |-------0--8--0--7--0--5--0--5--0--5--8--7--5--
Gb|----------------------------------------------

Stave 3:

Ab|------------------------------------
E |------------------------------------
B |------------------------------------
Gb|------------------------------------
B |--0--0--8--7--5--0--0--0--10--8--7--
Gb|------------------------------------

Stave 4:

Ab|---------------------------------------
E |---------------------------------------
B |---------------------------------------
Gb|---------------------------------------
B |---------------------------------------
Gb|--0--0--10--8--7--0--0--0--13--12--10--

Stave 5:

Ab|---------------------------------------------------------------------------
E |---------------------------------------------------------------------------
B |---------------------------------------------------------------------------
Gb|---------------------------------------------------------------------------
B |---------------------------------------------------------------------------
Gb|--12--0--0--0--0--0--0--0--8--8--8--8--8--8--8--8--5--5--5--5--7--7--7--7--

Stave 6:

Ab|---------------------------------------------------------------------------
E |---------------------------------------------------------------------------
B |---------------------------------------------------------------------------
Gb|---------------------------------------------------------------------------
B |---------------------------------------------------------------------------
Gb|--12--0--0--0--0--0--0--0--8--8--8--8--8--8--8--8--5--5--5--5--3--3--3--3--

Stave 7:

Ab|------------------
E |------------------
B |------------------
Gb|------------------
B |------8--7--------
Gb|--12--------8--0--

Stave 8:

Ab|-----------------------------------------------------
E |------------------10----9------------------10----12--
B |-----------------------------------------------------
Gb|------------------8-----7------------------8-----10--
B |------8--7---------------------8--7------------------
Gb|--12--------8--0-----------12--------8--0------------

Stave 9:

Ab|---------------------------------------
E |---------------------------------------
B |---------------------------------------
Gb|---------------------------------------
B |---------------------------------------
Gb|--0--0--0--0--0----------0--0--0--0--0--

Stave 10:

Ab|--------------------------------------
E |--------------------------------------
B |--------------------------------------
Gb|--------------------------------------
B |--------------------------------------
Gb|--0--0------------0----0--0--0--0--0--

Stave 11:

Ab|----
E |----
B |----
Gb|----
B |----
Gb|----

http://www.guitartabcreator.com
Guitar Tab Creator is intended to store guitar tab created through the tool. It currently does not support in-line text editing. Any text you place in here will be lost. If you need to comment on your tab, please use the "Tab Notes" section located below.