Sound will begin in 5 seconds

Symphony number 25

01234567891011121314151617181920212223
E
B
G
D
A
E
B
0 1 2 3 4 5 6 7 8 9 10 11 12 13 14 15 16 17 18 19 20 21 22 23
Song Science #1: How Pros Use 6 Chords to Write Hit Songs
(/) Slide Up  (\) Slide Down  (h) Hammer On  (p) Pull Off  (b) Bend (r) Release (v) Vibrato

Stave 1:

E|--3--3--3--3--|--------------|--------------|--------------|-------------|------------|------------|----
B|--------------|--3--3--3--3--|--4--4--4--4--|--------------|-------------|------------|------------|----
G|--------------|--------------|--------------|--------------|--0----0--0--|------0--0--|------0--0--|----
D|--------------|--------------|--------------|--4--4--4--4--|-------------|------------|------------|----
A|--------------|--------------|--------------|--------------|-------------|------------|------------|----
E|--------------|--------------|--------------|--------------|-------------|------------|------------|----

Stave 2:

E|------------|------------|------3-----|--------------|--------------|------------|-------------|--
B|------------|------------|------------|--------------|--1-----------|-----3------|-------------|--
G|------------|------------|---------3--|--3--0--0-----|-----3--2--0--|------------|-------------|--
D|------0--0--|------0--0--|------------|-----------1--|--------------|--4---------|----------0--|--
A|------------|------------|------------|--------------|--------------|------------|-------1-----|--
E|------------|------------|------------|--------------|--------------|------------|----3--------|--

Stave 3:

E|-------------|---------------|-------------|---------------------------------|--
B|-------------|------------1--|-------3--1--|---------------------------------|--
G|----0--3--0--|---------0-----|----2--------|--3------------------------------|--
D|-------------|---------------|-------------|---------------------------------|--
A|-------------|------4--------|-------------|---------------------------------|--
E|-------------|---------------|-------------|---------------------------------|--

Stave 4:

E|--------------------|-----------------------|-----|-----|--------------------|--------------------|--
B|--3--1--------------|--3--1-----------------|-----|--4--|--3--1--------------|--3--1--------------|--
G|--------3--3--3--3--|--------3--3--3--3--3--|-----|-----|--------3--3--3--3--|--------3--3--3--3--|--
D|--------------------|-----------------------|--3--|-----|--------------------|--------------------|--
A|--------------------|-----------------------|-----|-----|--------------------|--------------------|--
E|--------------------|-----------------------|-----|-----|--------------------|--------------------|--

Stave 5:

E|----------------------|-----------------------|--------------------|--------------------|--
B|----------------------|-----------------------|--------------------|--------------------|--
G|----------------------|-----------------------|--5--3--2--2--2--2--|--5--3--2--2--2--2--|--
D|----5--3--2--2--2--2--|--5--3--2--2--2--2--2--|--------------------|--------------------|--
A|----------------------|-----------------------|--------------------|--------------------|--
E|----------------------|-----------------------|--------------------|--------------------|--

Stave 6:

E|----------------------|--------------------|--------------------|--------------------|--------------------|--
B|----------------------|--------------------|--------------------|--------------------|--------------------|--
G|----------------------|--------------------|--3--2--0--0--0--0--|--3--2--0--0--0--0--|--------------------|--
D|----3--1--0--0--0--0--|--3--1--0--0--0--0--|--------------------|--------------------|--5--3--2--2--2--2--|--
A|----------------------|--------------------|--------------------|--------------------|--------------------|--
E|----------------------|--------------------|--------------------|--------------------|--------------------|--

Stave 7:

E|--------------|--|--------------|--|--------------|--|--------------|--------------|-----------|--
B|--4--1--------|--|--------------|--|--------------|--|--2-----------|--------------|-----------|--
G|--------2-----|--|--3-----------|--|--3-----------|--|-----3--0-----|--------------|-----------|--
D|-----------3--|--|-----3--0-----|--|-----3--0-----|--|-----------2--|--3--4--3--2--|--3--3-----|--
A|--------------|--|-----------1--|--|-----------1--|--|--------------|--------------|-----------|--
E|--------------|--|--------------|--|--------------|--|--------------|--------------|--------1--|--

Stave 8:

E|--------------|--------------|--------------|--------------|--------------|--------------|--------------
B|--------------|--------------|--------------|--------------|--------------|--------------|--------------
G|--------------|--------0-----|--------------|--------0-----|--------------|--------------|-----2--3-----
D|--0-----1-----|--3--------1--|--0-----1-----|--3--------1--|--0--1--2--0--|--------------|--1--------0--
A|-----1-----1--|-----1--------|-----1-----1--|-----1--------|--------------|--3--1--0--1--|--------------
E|--------------|--------------|--------------|--------------|--------------|--------------|--------------

Stave 9:

E|--------------|--------------|--------------|--------------|-----------0--|--1-----------|--------------
B|--------------|--------------|--1-----3-----|--------------|--1-----3-----|-----3--1-----|--------------
G|--------3-----|--2-----3-----|--------------|--2-----3-----|--------------|-----------2--|--3-----------
D|--1--3-----3--|-----3-----3--|-----3-----3--|-----3-----3--|-----3--------|--------------|--------3--4--
A|--------------|--------------|--------------|--------------|--------------|--------------|-----1--------
E|--------------|--------------|--------------|--------------|--------------|--------------|--------------

Stave 10:

E|--------------|----------------|----------------|--------------|------------|------------|------------|--
B|--------------|----------3-----|----------------|--------------|------------|------------|------------|--
G|--0-----------|-------3-----3--|--0-------0-----|-----0--------|------------|------------|------------|--
D|-----0--1--3--|----------------|-------1-----1--|--0-----1--3--|------------|--3------3--|------------|--
A|--------------|--1-------------|----------------|--------------|--1------1--|------------|--1------1--|--
E|--------------|----------------|----------------|--------------|------------|------------|------------|--

Stave 11:

E|------------|--------------|-----------2--|--
B|------------|--------1--3--|--4--1--------|--
G|------------|-----3--------|--------2-----|--
D|--3------3--|--------------|--------------|--
A|------------|--1-----------|--------------|--
E|------------|--------------|--------------|--

http://www.guitartabcreator.com
Guitar Tab Creator is intended to store guitar tab created through the tool. It currently does not support in-line text editing. Any text you place in here will be lost. If you need to comment on your tab, please use the "Tab Notes" section located below.