Sound will begin in 5 seconds

prairie home

Chords
01234567891011121314151617181920212223
E
B
G
D
A
E
B
0 1 2 3 4 5 6 7 8 9 10 11 12 13 14 15 16 17 18 19 20 21 22 23
Song Science #1: How Pros Use 6 Chords to Write Hit Songs
(/) Slide Up  (\) Slide Down  (h) Hammer On  (p) Pull Off  (b) Bend (r) Release (v) Vibrato

Stave 1:

E|--4--4--7--7-----5--5--8--8-----4--4--7--7-----7--7-----10--10--
B|--4--4--7--7-----5--5--8--8-----4--4--7--7-----7--7-----10--10--
G|--6--6--6--6-----5--5--5--5-----4--4--4--4-----7--7-----10--10--
D|--6--6--6--6-----7--7--7--7-----6--6--6--6-----9--9-----12--12--
A|--4--4--4--4-----7--7--7--7-----6--6--6--6-----9--9-----12--12--
E|--4--4--4--4-----5--5--5--5-----4--4--4--4-----7--7-----10--10--

Stave 2:

E|--------------------------
B|--------------------------
G|--------------------------
D|--------4-----7-----6--4--
A|--4--4-----4-----4--------
E|--------------------------

Stave 3:

E|-----------------------------
B|-----------------------------
G|--4--4--7--4-----2--2--5--2--
D|--4--4--4--4-----2--2--2--2--
A|-----------------------------
E|-----------------------------

Stave 4:

E|--4--4--4--4--------4--------4--------4-----4--4--4--4--------4--------7--
B|--4--4--4--4-----------5--------5-----------4--4--4--4-----------5-----8--
G|--6--6--6--6-----6--------6--------6--------6--6--6--6-----6--------6--9--
D|--6--6--6--6--------------------------------6--6--6--6--------------------
A|--4--4--4--4--------------------------------4--4--4--4--------------------
E|--4--4--4--4--------------------------------4--4--4--4--------------------

Stave 5:

E|--4--7--4--7--7--
B|--5--8--5--7--7--
G|--6--9--6--7--7--
D|-----------9--9--
A|-----------9--9--
E|-----------7--7--

Stave 6:

E|------------------------------------------------------------------------------------------------------
B|------------------------------------------------------------------------------------------------------
G|------------------12---------------------------------15------------------------------10---------------
D|----------12--------------12-----------------15--------------15---------------10------------10--------
A|--11--11--11--11--11--11--11--11-----14--14--14--14--14--14--14--14-----9--9--9---9--9---9--9---9-----
E|--9---9---9---9---9---9---9---9------12--12--12--12--12--12--12--12-----7--7--7---7--7---7--7---7-----

Stave 7:

E|--------------------------------------------------------------------------------------------------------
B|--------------------------------------------------------------------------------------------------------
G|------------------13---------------------------------12---------------------------------15--------------
D|----------13--------------13-----------------12--------------12-----------------15--------------15------
A|--12--12--12--12--12--12--12--12-----11--11--11--11--11--11--11--11-----14--14--14--14--14--14--14--14--
E|--10--10--10--10--10--10--10--10-----9---9---9---9---9---9---9---9------12--12--12--12--12--12--12--12--

Stave 8:

E|--------------------------------------------------------------------------------------------------------
B|--------------------------------------------------------------------------------------------------------
G|------------------14---------------------------------13---------------------------------12--------------
D|----------14--------------14-----------------13--------------13-----------------12--------------12------
A|--13--13--13--13--13--13--13--13-----12--12--12--12--12--12--12--12-----11--11--11--11--11--11--11--11--
E|--11--11--11--11--11--11--11--11-----10--10--10--10--10--10--10--10-----9---9---9---9---9---9---9---9---

Stave 9:

E|--14--14--14--14--14--14--14--14--------------------------------------------------------
B|--14--14--14--14--14--14--14--14------------------------12----------12----------12------
G|--11--11--11--11--11--11--11--11------------------------12--10--10--12--10--10--12--10--
D|--11--11--11--11--11--11--11--11----------------------------10--10------10--10------10--
A|-------------------------------------11--11--11--11-------------------------------------
E|-------------------------------------9---9---9---9--------------------------------------

Stave 10:

E|---------------------------------------------------------------------
B|---------------------------------------------------------------------
G|--12--10------10--13--10--12--10-----12--10------10--13--10--12--10--
D|----------12---------------------------------12----------------------
A|---------------------------------------------------------------------
E|---------------------------------------------------------------------

http://www.guitartabcreator.com
Guitar Tab Creator is intended to store guitar tab created through the tool. It currently does not support in-line text editing. Any text you place in here will be lost. If you need to comment on your tab, please use the "Tab Notes" section located below.