Sound will begin in 5 seconds

The Metal Hammer

01234567891011121314151617181920212223
E
B
G
D
A
E
B
0 1 2 3 4 5 6 7 8 9 10 11 12 13 14 15 16 17 18 19 20 21 22 23
Song Science #1: How Pros Use 6 Chords to Write Hit Songs
(/) Slide Up  (\) Slide Down  (h) Hammer On  (p) Pull Off  (b) Bend (r) Release (v) Vibrato

Stave 1:

E|--------------------------------------------------------------------------------------------
B|--------------------------------------------------------------------------------------------
G|--------------------------------------------------------------------------------------------
D|----2--5----7-----7-----7--7--10--7-----7-----7--7--5--7-----7-----7--7--10--------9--3--7--
A|----0--3----5-----5-----5--5--8---5-----5-----5--5--3--5-----5-----5--5--8---------7--1--5--
E|---------------0-----0---------------0-----0--------------0-----0------------0--0-----------

Stave 2:

E|--------------------------------------------------------------------------------------
B|--------------------------------------------------------------------------------------
G|--------------------------------------------------------------------------------------
D|--7-----7-----3-----3-----5-----5--------------7-----7-----3-----3-----5-----5--2--5--
A|--5-----5-----1-----1-----3-----3-----5-----5--5-----5-----1-----1-----3-----3--0--3--
E|-----0-----0-----0-----0-----0-----0--3--0--3-----0-----0-----0-----0-----0-----------

Stave 3:

E|--------------------------------------------------------------------------------------------
B|--------------------------------------------------------------------------------------------
G|--------------------------------------------------------------------------------------------
D|--9-----9-----7-----7-----5-----5-----7-----7-----9-----9-----7-----7-----5-----5-----7--8--
A|--7-----7-----5-----5-----3-----3-----5-----5-----7-----7-----5-----5-----3-----3-----5--6--
E|-----0-----0-----0-----0-----0-----0-----0-----0-----0-----0-----0-----0-----0-----0--------

Stave 4:

E|------------------------------------------------------------------------------------------------
B|------------------------------------------------------------------------------------------------
G|--------5-----------------------7--5--------------------5---------------------------------------
D|-----------7--------5-----------------7--6--5--------------7--------5--------------9--7--10--9--
A|-----------------------7-----------------------7-----------------------7-----------7--5--8---7--
E|--0--0--------0--0--------0--0--------------------0--0--------0--0--------0--0--0---------------

Stave 5:

E|---------------------------------------------------------------------------------------------
B|---------------------------------------------------------------------------------------------
G|---------------------------------------------------------------------------------------------
D|--------------------------------------------------------------------------------9--7--10--9--
A|--------------------------------------------------------------------------------7--5--8---7--
E|--0--0--0--0--0--0--0--0--0--0--0--0--0--0--0--0--0--0--0--0--0--0--0--0--0--0---------------

Stave 6:

E|---------------------------------------------------------------------
B|---------------------------------------------------------------------
G|---------------------------------------------------------------------
D|--9--7--5--2--------4--7--5--------5--9--7--------7--10--9--7--5--4--
A|--7--5--3--0--------2--5--3--------3--7--5--------5--8---7--5--3--2--
E|--------------0--0-----------0--0-----------0--0---------------------

Stave 7:

E|--------------------------------------------------------------------------------------------------
B|--------------------------------------------------------------------------------------------------
G|--------5-----------------------------------------------5-----------------------------------------
D|-----------7-----7--------5--------3--------2--------------7-----7--------5--------3--------6-----
A|--------------------8--------7--------5--------3--------------------8--------7--------5--------7--
E|--0--0--------0--------0--------0--------0--------0--0--------0--------0--------0--------0--------

Stave 8:

E|--------------------------------------------------------------------------------------------
B|--------------------------------------------------------------------------------------------
G|--------------------------------------------------------------------------------------------
D|--9--9--9--8--8--8--7--7--7--6--6--6--5--7--7--9--------5-----------3-----------2-----------
A|--7--7--7--7--7--7--7--7--7--7--7--7--7--5--5--7-----------7-----------5-----------3--------
E|--------------------------------------------------0--0--------0--0--------0--0--------0--0--

Stave 9:

E|-----------------------
B|-----------------------
G|-----------------------
D|--2--3--3--3--2--2--2--
A|--0--5--5--5--3--3--3--
E|-----------------------

Stave 10:

E|--------------
B|--------------
G|--2--5--4-----
D|--0--3--2--5--
A|-----------3--
E|--------------

Stave 11:

E|---------------------------------------------------------------------
B|---------------------------------------------------------------------
G|---------------------------------------------------------------------
D|--7-----7-----7--5--7-----7-----7--3--7-----7-----7--5--9--7--10--9--
A|--5-----5-----5--3--5-----5-----5--1--5-----5-----5--3--7--5--8---7--
E|-----0-----0-----------0-----0-----------0-----0---------------------

Stave 12:

E|-----------------------------------------------------------------------------------------------
B|-----------------------------------------------------------------------------------------------
G|--------5-----------------------7--5--------------------5--------------------------------------
D|-----------7--------5-----------------7--6--5--------------7--------5--------------9--7--5--2--
A|-----------------------7-----------------------7-----------------------7-----------7--5--3--0--
E|--0--0--------0--0--------0--0--------------------0--0--------0--0--------0--0--0--------------

Stave 13:

E|--
B|--
G|--
D|--
A|--
E|--

Stave 14:

E|--
B|--
G|--
D|--
A|--
E|--

Stave 15:

E|--
B|--
G|--
D|--
A|--
E|--

Stave 16:

E|--
B|--
G|--
D|--
A|--
E|--

http://www.guitartabcreator.com
Guitar Tab Creator is intended to store guitar tab created through the tool. It currently does not support in-line text editing. Any text you place in here will be lost. If you need to comment on your tab, please use the "Tab Notes" section located below.