... (Kisses)

Chords

01234567891011121314151617181920212223
E
B
G
D
A
E
B
0 1 2 3 4 5 6 7 8 9 10 11 12 13 14 15 16 17 18 19 20 21 22 23
(/) Slide Up  (\) Slide Down  (h) Hammer On  (p) Pull Off  (b) Bend (r) Release (v) Vibrato


Acoustic:
Eb|------------------|------------------|------------------|------------------|
Bb|------------------|------------------|------------------|------------------|
Gb|----6---6---6---6-|------------------|----6---6---6---6-|------------------| (x9)
Db|------------------|----6---6---6---6-|------------------|----6---6---6---6-|
Ab|--0---0---0---0---|------------------|--0---0---0---0---|------------------|
Eb|------------------|--0---0---0---0---|------------------|--0---0---0---0---|


Eb|------------------|------------------|------------------|------------------|
Bb|------------------|------------------|------------------|------------------|
Gb|--2-2-2-2-2-2-2-2-|--4-4-4-4-4-4-4-4-|--6-6-6-6-6-6-6-6-|--4-4-4-4-4-4-4-4-| (x3)
Db|--2-2-2-2-2-2-2-2-|--4-4-4-4-4-4-4-4-|--6-6-6-6-6-6-6-6-|--4-4-4-4-4-4-4-4-|
Ab|--0-0-0-0-0-0-0-0-|--2-2-2-2-2-2-2-2-|--4-4-4-4-4-4-4-4-|--2-2-2-2-2-2-2-2-|
Eb|--0-0-0-0-0-0-0-0-|--0-0-0-0-0-0-0-0-|--0-0-0-0-0-0-0-0-|--0-0-0-0-0-0-0-0-|


Eb|------------------|------------------|------------------|------------------|
Bb|------------------|------------------|------------------|------------------|
Gb|--2-2-2-2-2-2-2-2-|--4-4-4-4-4-4-4-4-|--2-2-2-2-2-2-2-2-|--2-2-2-2-2-2-2-2-|
Db|--2-2-2-2-2-2-2-2-|--4-4-4-4-4-4-4-4-|--2-2-2-2-2-2-2-2-|--2-2-2-2-2-2-2-2-|
Ab|--0-0-0-0-0-0-0-0-|--2-2-2-2-2-2-2-2-|--0-0-0-0-0-0-0-0-|--0-0-0-0-0-0-0-0-|
Eb|--0-0-0-0-0-0-0-0-|--0-0-0-0-0-0-0-0-|--0-0-0-0-0-0-0-0-|--0-0-0-0-0-0-0-0-|


Electric:
Eb|------------------|------------------|------------------|------------------|
Bb|------------------|------------------|------------------|------------------|
Gb|------------------|------------------|------------------|--2-2-2-2-2-2-2-2-|
Db|------------------|------------------|------------------|--2-2-2-2-2-2-2-2-|
Ab|------------------|------------------|------------------|--0-0-0-0-0-0-0-0-|
Eb|------------------|------------------|------------------|--0-0-0-0-0-0-0-0-|
[[],[],[],[],[],[]]

Member for

8 years 8 months
Submitted by xerox594 on Sat, 2011-09-24 08:20