Cigarette Box

Chords
01234567891011121314151617181920212223
E
B
G
D
A
E
B
0 1 2 3 4 5 6 7 8 9 10 11 12 13 14 15 16 17 18 19 20 21 22 23
(/) Slide Up  (\) Slide Down  (h) Hammer On  (p) Pull Off  (b) Bend (r) Release (v) Vibrato


Intro:
E|------------------|------------------|------------------|------------------|------------------|
B|------------------|------------------|------------------|------------------|------------------|
G|--5-5-5-55-55-55--|--5-5-5-55-55-55--|--2-2-2-22-22-22--|--2-2-2-22-22-22--|------------------|
D|--5-5-5-55-55-55--|--5-5-5-55-55-55--|--2-2-2-22-22-22--|--2-2-2-22-22-22--|--5-5-5-55-55-55--|
A|--3-3-3-33-33-33--|--3-3-3-33-33-33--|--0-0-0-00-00-00--|--0-0-0-00-00-00--|--5-5-5-55-55-55--|
E|------------------|------------------|------------------|------------------|--3-3-3-33-33-33--|

E|------------------|------------------|------------------|
B|------------------|------------------|------------------|
G|------------------|--2-2-2-22-22-22--|--4-4-4-44-44-44--| (x2)
D|--5-5-5-55-55-55--|--2-2-2-22-22-22--|--4-4-4-44-44-44--|
A|--5-5-5-55-55-55--|--0-0-0-00-00-00--|--2-2-2-22-22-22--|
E|--3-3-3-33-33-33--|------------------|------------------|


Verse 1 pt. 2:
E|------------------|------------------|------------------|------------------|------------------|
B|------------------|------------------|------------------|------------------|------------------|
G|--5555555555555555|--5555555555555555|--2222222222222222|--2222222222222222|------------------|
D|--5555555555555555|--5555555555555555|--2222222222222222|--2222222222222222|--5555555555555555|
A|--3333333333333333|--3333333333333333|--0000000000000000|--0000000000000000|--5555555555555555|
E|------------------|------------------|------------------|------------------|--3333333333333333|

E|------------------|------------------|------------------|
B|------------------|------------------|------------------|
G|------------------|--2222222222222222|--4444444444444444|
D|--5555555555555555|--2222222222222222|--4444444444444444|
A|--5555555555555555|--0000000000000000|--2222222222222222|
E|--3333333333333333|------------------|------------------|


Chorus:
E|------------------|------------------|------------------|------------------|------------------|
B|------------------|------------------|------------------|------------------|------------------|
G|--5-5-5-55-55-55--|--5-5-5-55-55-55--|--2-2-2-22-22-22--|--2-2-2-22-22-22--|------------------|
D|--5-5-5-55-55-55--|--5-5-5-55-55-55--|--2-2-2-22-22-22--|--2-2-2-22-22-22--|--5-5-5-55-55-55--|
A|--3-3-3-33-33-33--|--3-3-3-33-33-33--|--0-0-0-00-00-00--|--0-0-0-00-00-00--|--5-5-5-55-55-55--|
E|------------------|------------------|------------------|------------------|--3-3-3-33-33-33--|

E|------------------|------------------|------------------|
B|------------------|------------------|------------------|
G|------------------|--2-2-2-22-22-22--|--4-4-4-44-44-44--| 
D|--5-5-5-55-55-55--|--2-2-2-22-22-22--|--4-4-4-44-44-44--|
A|--5-5-5-55-55-55--|--0-0-0-00-00-00--|--2-2-2-22-22-22--|
E|--3-3-3-33-33-33--|------------------|------------------|

E|------------------|------------------|------------------|------------------|------------------|
B|------------------|------------------|------------------|------------------|------------------|
G|--5-5-5-55-55-55--|--5-5-5-55-55-55--|--2-2-2-22-22-22--|--2-2-2-22-22-22--|------------------|
D|--5-5-5-55-55-55--|--5-5-5-55-55-55--|--2-2-2-22-22-22--|--2-2-2-22-22-22--|--5-5-5-55-55-55--|
A|--3-3-3-33-33-33--|--3-3-3-33-33-33--|--0-0-0-00-00-00--|--0-0-0-00-00-00--|--5-5-5-55-55-55--|
E|------------------|------------------|------------------|------------------|--3-3-3-33-33-33--|

E|------------------|------------------|------------------|
B|------------------|------------------|------------------|
G|------------------|--2-2-2-22-22-22--|--4-4-4-4---------| 
D|--5-5-5-55-55-55--|--2-2-2-22-22-22--|--4-4-4-4---------|
A|--5-5-5-55-55-55--|--0-0-0-00-00-00--|--2-2-2-2---------|
E|--3-3-3-33-33-33--|------------------|------------------|


Instrumental:
E|------------------|------------------|------------------|------------------|------------------|
B|------------------|------------------|------------------|------------------|------------------|
G|--5-5-5-55-55-55--|--5-5-5-55-55-55--|--2-2-2-22-22-22--|--2-2-2-22-22-22--|------------------|
D|--5-5-5-55-55-55--|--5-5-5-55-55-55--|--2-2-2-22-22-22--|--2-2-2-22-22-22--|--5-5-5-55-55-55--|
A|--3-3-3-33-33-33--|--3-3-3-33-33-33--|--0-0-0-00-00-00--|--0-0-0-00-00-00--|--5-5-5-55-55-55--|
E|------------------|------------------|------------------|------------------|--3-3-3-33-33-33--|

E|------------------|------------------|------------------|
B|------------------|------------------|------------------|
G|------------------|--2-2-2-22-22-22--|--4-4-4-44-44-44--| (x2)
D|--5-5-5-55-55-55--|--2-2-2-22-22-22--|--4-4-4-44-44-44--|
A|--5-5-5-55-55-55--|--0-0-0-00-00-00--|--2-2-2-22-22-22--|
E|--3-3-3-33-33-33--|------------------|------------------|


Verse 2 pt. 2:
E|------------------|------------------|------------------|------------------|------------------|
B|------------------|------------------|------------------|------------------|------------------|
G|--5555555555555555|--5555555555555555|--2222222222222222|--2222222222222222|------------------|
D|--5555555555555555|--5555555555555555|--2222222222222222|--2222222222222222|--5555555555555555|
A|--3333333333333333|--3333333333333333|--0000000000000000|--0000000000000000|--5555555555555555|
E|------------------|------------------|------------------|------------------|--3333333333333333|

E|------------------|------------------|------------------|
B|------------------|------------------|------------------|
G|------------------|--2222222222222222|--4444444444444444|
D|--5555555555555555|--2222222222222222|--4444444444444444|
A|--5555555555555555|--0000000000000000|--2222222222222222|
E|--3333333333333333|------------------|------------------|


Chorus:
E|------------------|------------------|------------------|------------------|------------------|
B|------------------|------------------|------------------|------------------|------------------|
G|--5-5-5-55-55-55--|--5-5-5-55-55-55--|--2-2-2-22-22-22--|--2-2-2-22-22-22--|------------------|
D|--5-5-5-55-55-55--|--5-5-5-55-55-55--|--2-2-2-22-22-22--|--2-2-2-22-22-22--|--5-5-5-55-55-55--|
A|--3-3-3-33-33-33--|--3-3-3-33-33-33--|--0-0-0-00-00-00--|--0-0-0-00-00-00--|--5-5-5-55-55-55--|
E|------------------|------------------|------------------|------------------|--3-3-3-33-33-33--|

E|------------------|------------------|------------------|
B|------------------|------------------|------------------|
G|------------------|--2-2-2-22-22-22--|--4-4-4-44-44-44--| (x2)
D|--5-5-5-55-55-55--|--2-2-2-22-22-22--|--4-4-4-44-44-44--|
A|--5-5-5-55-55-55--|--0-0-0-00-00-00--|--2-2-2-22-22-22--|
E|--3-3-3-33-33-33--|------------------|------------------|


Bridge:
E|------------------|------------------|------------------|------------------|------------------|
B|------------------|------------------|------------------|------------------|------------------|
G|--5555555555555555|--2222222222222222|--5555555555555555|--2222222222222222|--5555555555555555|
D|--5555555555555555|--2222222222222222|--5555555555555555|--2222222222222222|--5555555555555555|
A|--3333333333333333|--0000000000000000|--3333333333333333|--0000000000000000|--3333333333333333|
E|------------------|------------------|------------------|------------------|------------------|

E|------------------|------------------|------------------|
B|------------------|------------------|------------------|
G|--2222222222222222|--4-----4-----4-4-|--5-----5---5-55--|
D|--2222222222222222|--4-----4-----4-4-|--5-----5---5-55--|
A|--0000000000000000|--2-----2-----2-2-|--3-----3---3-33--|
E|------------------|------------------|------------------|


Chorus:
E|------------------|------------------|------------------|------------------|------------------|
B|------------------|------------------|------------------|------------------|------------------|
G|--5~--------------|--5-5-5-55-55-55--|--2-2-2-22-22-22--|--2-2-2-22-22-22--|------------------|
D|--5~--------------|--5-5-5-55-55-55--|--2-2-2-22-22-22--|--2-2-2-22-22-22--|--5-5-5-55-55-55--|
A|--3~--------------|--3-3-3-33-33-33--|--0-0-0-00-00-00--|--0-0-0-00-00-00--|--5-5-5-55-55-55--|
E|------------------|------------------|------------------|------------------|--3-3-3-33-33-33--|

E|------------------|------------------|------------------|
B|------------------|------------------|------------------|
G|------------------|--2-2-2-22-22-22--|--4-4-4-44-44-44--|
D|--5-5-5-55-55-55--|--2-2-2-22-22-22--|--4-4-4-44-44-44--|
A|--5-5-5-55-55-55--|--0-0-0-00-00-00--|--2-2-2-22-22-22--|
E|--3-3-3-33-33-33--|------------------|------------------|

E|------------------|------------------|------------------|------------------|------------------|
B|------------------|------------------|------------------|------------------|------------------|
G|--5-5-5-55-55-55--|--5-5-5-55-55-55--|--2-2-2-22-22-22--|--2-2-2-22-22-22--|------------------|
D|--5-5-5-55-55-55--|--5-5-5-55-55-55--|--2-2-2-22-22-22--|--2-2-2-22-22-22--|--5-5-5-55-55-55--|
A|--3-3-3-33-33-33--|--3-3-3-33-33-33--|--0-0-0-00-00-00--|--0-0-0-00-00-00--|--5-5-5-55-55-55--|
E|------------------|------------------|------------------|------------------|--3-3-3-33-33-33--|

E|------------------|------------------|------------------|
B|------------------|------------------|------------------|
G|------------------|--2-2-2-22-22-22--|--4-4-4-44-44-44--| 
D|--5-5-5-55-55-55--|--2-2-2-22-22-22--|--4-4-4-44-44-44--|
A|--5-5-5-55-55-55--|--0-0-0-00-00-00--|--2-2-2-22-22-22--|
E|--3-3-3-33-33-33--|------------------|------------------|

E|------------------|------------------|------------------|------------------|------------------|
B|------------------|------------------|------------------|------------------|------------------|
G|--5-5-5-55-55-55--|--5-5-5-55-55-55--|--2-2-2-22-22-22--|--2-2-2-22-22-22--|------------------|
D|--5-5-5-55-55-55--|--5-5-5-55-55-55--|--2-2-2-22-22-22--|--2-2-2-22-22-22--|--5-5-5-55-55-55--|
A|--3-3-3-33-33-33--|--3-3-3-33-33-33--|--0-0-0-00-00-00--|--0-0-0-00-00-00--|--5-5-5-55-55-55--|
E|------------------|------------------|------------------|------------------|--3-3-3-33-33-33--|

E|------------------|------------------|------------------|
B|------------------|------------------|------------------|
G|------------------|--2-2-2-22-22-22--|--4-4-4-44-44-44--| 
D|--5-5-5-55-55-55--|--2-2-2-22-22-22--|--4-4-4-44-44-44--|
A|--5-5-5-55-55-55--|--0-0-0-00-00-00--|--2-2-2-22-22-22--|
E|--3-3-3-33-33-33--|------------------|------------------|

E|------------------|------------------|------------------|------------------|------------------|
B|------------------|------------------|------------------|------------------|------------------|
G|--5-5-5-55-55-55--|--5-5-5-55-55-55--|--2-2-2-22-22-22--|--2-2-2-22-22-22--|------------------|
D|--5-5-5-55-55-55--|--5-5-5-55-55-55--|--2-2-2-22-22-22--|--2-2-2-22-22-22--|--5-5-5-55-55-55--|
A|--3-3-3-33-33-33--|--3-3-3-33-33-33--|--0-0-0-00-00-00--|--0-0-0-00-00-00--|--5-5-5-55-55-55--|
E|------------------|------------------|------------------|------------------|--3-3-3-33-33-33--|

E|------------------|------------------|------------------|
B|------------------|------------------|------------------|
G|------------------|--2-2-2-22-22-22--|--4-4-4-4---------| 
D|--5-5-5-55-55-55--|--2-2-2-22-22-22--|--4-4-4-4---------|
A|--5-5-5-55-55-55--|--0-0-0-00-00-00--|--2-2-2-2---------|
E|--3-3-3-33-33-33--|------------------|------------------|


Outro:
E|------------------|------------------|
B|------------------|------------------|
G|--5-5-5-55-55-55--|--5-5-5-55-55-55--|
D|--5-5-5-55-55-55--|--5-5-5-55-55-55--|
A|--3-3-3-33-33-33--|--3-3-3-33-33-33--|
E|------------------|------------------|
[["."],["."],["."],["."],["."],["1"]]

Member for

8 years 8 months
Submitted by xerox594 on Sat, 2011-09-24 09:42