Sound will begin in 5 seconds

Melodic Song

01234567891011121314151617181920212223
E
B
G
D
A
E
B
0 1 2 3 4 5 6 7 8 9 10 11 12 13 14 15 16 17 18 19 20 21 22 23
Song Science #1: How Pros Use 6 Chords to Write Hit Songs
(/) Slide Up  (\) Slide Down  (h) Hammer On  (p) Pull Off  (b) Bend (r) Release (v) Vibrato

Stave 1:

E|------------------------------------------------------------------------
B|------------------------------------------------------------------------
G|------------------------------------------------------------------------
D|------------------------------------------------------------------------
A|------------------------------------------------------------7--8--7-----
E|--0--0--0----0--0--0----8--7----0--0--0----0--0--0----7--8-----------8--

Stave 2:

E|-------------------------------------------------------------------------
B|-------------------------------------------------------------------------
G|-------------------------------------------------------------------------
D|------------------------------------------------------------------7--10--
A|------------------------------------------------------------7--8---------
E|--0--0--0----0--0--0----8--7----0--0--0----0--0--0----7--8---------------

Stave 3:

E|-------------------------------------------------------------------------
B|-------------------------------------------------------------------------
G|-------------------------------------------------------------------------
D|-------------------------------------------------------------------------
A|------------------------------------------------------------7--8--7------
E|--0--0--0----0--0--0----8--7----0--0--0----0--0--0----7--8-----------10--

Stave 4:

E|--------------------------------------------
B|--------------------------------------------
G|--------------------------------------------
D|--8-----------------------------------------
A|--8----0--8--10--0--7--8--0--5--7--0--3--5--
E|--8-----------------------------------------

Stave 5:

E|----------------
B|----------------
G|----------------
D|--10----7-------
A|--8-----5-------
E|--8-----5-------

Stave 6:

E|---------------------------------------------------------
B|---------------------------------------------------------
G|---------------------------------------------------------
D|---------------------------------------------------------
A|-----------5-----7----------------5-----7----------------
E|--0--0--0-----0-----0----0--0--0-----0-----0-------------

Stave 7:

E|--------------------------------------------------
B|--------------------------------------------------
G|--------------------------------------------------
D|--------------------------------------------------
A|-----------7-----10----------------7-----10-------
E|--8--8--8-----8------8----8--8--8-----8-----------

Stave 8:

E|------------------------------
B|------------------------------
G|------------------------------
D|--------------0--0------8--8--
A|--12----12----0--0------8--8--
E|--8-----10----0--0------8--8--

Stave 9:

E|--------------------------------------------
B|--------------------------------------------
G|------------------10--10--------------------
D|--8----5----8--8--10--10----10--10--12--12--
A|--8----5----8--8--8---8-----10--10--10--10--
E|--8----5----8--8--8---8-----10--10--10--10--

Stave 10:

E|---------------------------
B|---------------------------
G|---------------------------
D|--8----5----0------3----5--
A|--8----5----0------3----5--
E|--8----5----0------3----5--

Stave 11:

E|--------------------------------------------
B|--10--11------------------------------------
G|----------12--12--12--12----10--10--10--10--
D|--7---8-------------------------------------
A|----------10--10--10--10----8---8---8---8---
E|--------------------------------------------

Stave 12:

E|------------------------------------
B|--10--11------------10--13----------
G|----------12--10------------12--10--
D|--7---8-------------7---10----------
A|----------10--8-------------10--8---
E|------------------------------------

Stave 13:

E|-----------------
B|-----------------
G|-----------------
D|-----------------
A|--12--12--8--10--
E|--8---10--7--7---

http://www.guitartabcreator.com
Guitar Tab Creator is intended to store guitar tab created through the tool. It currently does not support in-line text editing. Any text you place in here will be lost. If you need to comment on your tab, please use the "Tab Notes" section located below.