Sound will begin in 5 seconds

Edelweiss

01234567891011121314151617181920212223
E
B
G
D
A
E
B
0 1 2 3 4 5 6 7 8 9 10 11 12 13 14 15 16 17 18 19 20 21 22 23
Song Science #1: How Pros Use 6 Chords to Write Hit Songs
(/) Slide Up  (\) Slide Down  (h) Hammer On  (p) Pull Off  (b) Bend (r) Release (v) Vibrato

Stave 1:

E|--------5--5--------|--3--------0--------|-----------------|--0------2--
B|--0--3--3-----3-----|--0--3--1-----1-----|--0--0--0--1--3--|--1------1--
G|--0-----2--------2--|--0-----0--------0--|--0-----0--------|--0------2--
D|-----4--------------|-----4--2-----------|-----------------|--2------0--
A|--------------------|--------3-----------|-----------------|--0---------
E|--3-----2-----------|--3-----------------|--3-----0--------|------------

Stave 2:

E|--------5--5--------|--3--------0--------|-----------------------------------|--3--
B|--0--3--3-----3-----|--0--3--1-----1-----|--0--3--3--------5--------7--------|--0--
G|--0-----2--------2--|--0-----0--------0--|--0--------0--------0--------0-----|--0--
D|-----4--------------|-----4--2-----------|-----4--------4--------5--------7--|-----
A|--------------------|--------3-----------|-----------------------------------|-----
E|--3-----2-----------|--3-----------------|--3--------------------------------|--3--

Stave 3:

E|--5--------|-----------|----------|--3----|--0--3--5--3--|--2----2--
B|--3--3--3--|--7--5--3--|--0----3--|--0----|--1-----2-----|--3----1--
G|--2--------|--------x--|--0-------|--0----|--0--4-----4--|--2----2--
D|-----4--4--|--7--5--4--|-------4--|-------|--------------|--0----0--
A|-----------|-----------|----------|-------|--3-----0-----|----------
E|--2--------|-----------|--3-------|--3----|--------------|----------

Stave 4:

E|-----3--
B|--1-----
G|--1-----
D|-----4--
A|--------
E|--3-----

Stave 5:

E|--------5--5--------|--3-----0--0--------|-----------------------------------|-----3--
B|--0--3--3-----3-----|--0--3--1-----1-----|--0--3--3--------5--------7--------|--8--0--
G|--0-----2--------2--|--0-----0--------0--|--0--------0--------0--------0-----|-----0--
D|-----4--------------|-----4--------------|-----4--------4--------5--------7--|--9--0--
A|--------------------|--------3-----------|-----------------------------------|--------
E|--3-----2-----------|--3-----------------|--3--------------------------------|-----3--

Stave 6:

E|--
B|--
G|--
D|--
A|--
E|--

Stave 7:

E|--
B|--
G|--
D|--
A|--
E|--

http://www.guitartabcreator.com
Guitar Tab Creator is intended to store guitar tab created through the tool. It currently does not support in-line text editing. Any text you place in here will be lost. If you need to comment on your tab, please use the "Tab Notes" section located below.