Curly Sue intro+vers

01234567891011121314151617181920212223
E
B
G
D
A
E
B
0 1 2 3 4 5 6 7 8 9 10 11 12 13 14 15 16 17 18 19 20 21 22 23
(/) Slide Up  (\) Slide Down  (h) Hammer On  (p) Pull Off  (b) Bend (r) Release (v) Vibrato

Capo Fret 3

Stave 1:

E|-----------------3-----------------3--1-----------------3-----------------3--1--
B|-----1--0--1-----------1--0--1--------------1--0--1-----------1--0--1-----------
G|--------------2-----------------2--------------------2-----------------2--------
D|--------------------3--------------------------------------3--------------------
A|--0--------------------------------------0--------------------------------------
E|--------------------------------------------------------------------------------

Stave 2:

E|-----------------3-----------------3--1-----------------3-----------------3--1--
B|-----1--0--1-----------1--0--1--------------1--0--1-----------1--0--1-----------
G|--------------2-----------------2--------------------2-----------------2--------
D|-----------------------------------------3-----------------3--------------------
A|--0-----------------0-----------------------------------------------------------
E|--------------------------------------------------------------------------------

							http://www.guitartabcreator.com
Chords

Instruments
{"strings":[[[".",".",".",".",".",3,".",".",".",".",".",3,1,".",".",".",".",".",3,".",".",".",".",".",3,1],[".",1,0,1,".",".",".",1,0,1,".",".",".",".",1,0,1,".",".",".",1,0,1,".",".","."],[".",".",".",".",2,".",".",".",".",".",2,".",".",".",".",".",".",2,".",".",".",".",".",2,".","."],[".",".",".",".",".",".",3,".",".",".",".",".",".",".",".",".",".",".",".",3,".",".",".",".",".","."],[0,".",".",".",".",".",".",".",".",".",".",".",".",0,".",".",".",".",".",".",".",".",".",".",".","."],[".",".",".",".",".",".",".",".",".",".",".",".",".",".",".",".",".",".",".",".",".",".",".",".",".","."]],[[".",".",".",".",".",3,".",".",".",".",".",3,1,".",".",".",".",".",3,".",".",".",".",".",3,1],[".",1,0,1,".",".",".",1,0,1,".",".",".",".",1,0,1,".",".",".",1,0,1,".",".","."],[".",".",".",".",2,".",".",".",".",".",2,".",".",".",".",".",".",2,".",".",".",".",".",2,".","."],[".",".",".",".",".",".",".",".",".",".",".",".",".",3,".",".",".",".",".",3,".",".",".",".",".","."],[0,".",".",".",".",".",0,".",".",".",".",".",".",".",".",".",".",".",".",".",".",".",".",".",".","."],[".",".",".",".",".",".",".",".",".",".",".",".",".",".",".",".",".",".",".",".",".",".",".",".",".","."]]],"numberofstrings":6,"notes":["E","B","G","D","A","E","B"],"capo":"3","stringnotes":["E4","B3","G3","D3","A2","E2"],"comments":["Stave 1:","Stave 2:"],"timing":[["W","W","W","W","W","W","W","W","W","W","W","W","W","W","W","W","W","W","W","W","W","W","W","W","W","W"],["W","W","W","W","W","W","W","W","W","W","W","W","W","W","W","W","W","W","W","W","W","W","W","W","W","W"]],"timingvisible":false,"tabcounter":26,"stave":1,"totalstaves":2,"instrument":"6guitar","selectedtuning":"6_standard","version":"13"}

Member for

2 years 9 months
Submitted by Per Wockatz on Tue, 2021-01-26 16:31