Sound will begin in 5 seconds

Where Were You Then Solo

01234567891011121314151617181920212223
E
B
G
D
A
E
B
0 1 2 3 4 5 6 7 8 9 10 11 12 13 14 15 16 17 18 19 20 21 22 23
Song Science #1: How Pros Use 6 Chords to Write Hit Songs
(/) Slide Up  (\) Slide Down  (h) Hammer On  (p) Pull Off  (b) Bend (r) Release (v) Vibrato

Stave 1:

E|----------------------------------------------------------------------------
B|--10-------------------------------------------10--10--9--10--12b13r12--10--
G|--12b14r12--9-------------------------------9-------------------------------
D|---------------10--9--12--10p9----------10----------------------------------
A|--------------------------------12--12--------------------------------------
E|----------------------------------------------------------------------------

Stave 2:

E|---------------------------------------------------16--13--12------------------------------
B|--13--12--13--15--13--15--15b17--15p13p12----------------------15--13h15p13--12--12h13p12--
G|-------------------------------------------14--13------------------------------------------
D|-------------------------------------------------------------------------------------------
A|-------------------------------------------------------------------------------------------
E|-------------------------------------------------------------------------------------------

Stave 3:

E|------------------12-------------------------------------------------------
B|--------------13------13--12--13--15--15b17--15p13p12----------------------
G|--14--14--14-------------------------------------------14--13--------------
D|---------------------------------------------------------------15--14--12--
A|---------------------------------------------------------------------------
E|---------------------------------------------------------------------------

Stave 4:

E|--------------------------------------------------------
B|--------------12h13p12------12--15--13--12--------------
G|----------13------------14------------------14--13--14--
D|------14------------------------------------------------
A|--15----------------------------------------------------
E|--------------------------------------------------------

Stave 5:

E|----------12------------------------------------
B|------13------13--12--13--15--15b17--13--15--17b
G|--14--------------------------------------------
D|------------------------------------------------
A|------------------------------------------------
E|------------------------------------------------

http://www.guitartabcreator.com
Guitar Tab Creator is intended to store guitar tab created through the tool. It currently does not support in-line text editing. Any text you place in here will be lost. If you need to comment on your tab, please use the "Tab Notes" section located below.