Sound will begin in 5 seconds

Ext

01234567891011121314151617181920212223
E
B
G
D
A
E
B
0 1 2 3 4 5 6 7 8 9 10 11 12 13 14 15 16 17 18 19 20 21 22 23
Song Science #1: How Pros Use 6 Chords to Write Hit Songs
(/) Slide Up  (\) Slide Down  (h) Hammer On  (p) Pull Off  (b) Bend (r) Release (v) Vibrato

Stave 1:

E|------------------------------------------------------
B|------------------------------------------------------
G|-------------------7--6-------------------------------
D|--------4--5--7/9--------7----------------------------
A|-----5----------------------9/10--9--7--10--9---------
E|--7--------------------------------------------10--7--

Stave 2:

E|-------------------------------------------------7--10/12--
B|------------------------------------------7--10------------
G|----------------------7h8h9/11\9p7-----7-------------------
D|----------------7--9----------------9----------------------
A|---------9--10---------------------------------------------
E|--7--10----------------------------------------------------

Stave 3:

E|--12--10--------------------------------------------------
B|----------11--10------------------------------------------
G|------------------12--9------9--10/11--9--7---------------
D|-------------------------12------------------9--7---------
A|---------------------------------------------------10--7--
E|----------------------------------------------------------

http://www.guitartabcreator.com
Guitar Tab Creator is intended to store guitar tab created through the tool. It currently does not support in-line text editing. Any text you place in here will be lost. If you need to comment on your tab, please use the "Tab Notes" section located below.