Sound will begin in 5 seconds

nostalgiaaa

01234567891011121314151617181920212223
E
B
G
D
A
E
B
0 1 2 3 4 5 6 7 8 9 10 11 12 13 14 15 16 17 18 19 20 21 22 23
Song Science #1: How Pros Use 6 Chords to Write Hit Songs
(/) Slide Up  (\) Slide Down  (h) Hammer On  (p) Pull Off  (b) Bend (r) Release (v) Vibrato

Stave 1:

E|----------------------------------------------------------------------------------------------------------
B|---------------------12-----------------------------------------------------------------------------------
G|--------9--11b13--9------11--9--------------------9------9--------------------9---------------------------
D|--9h11--------------------------9h11--9--9--9h11-----11-----11---------9--11-----11-----------------------
A|----------------------------------------------------------------9--11-------------------------------------
E|----------------------------------------------------------------------------------------------------------

Stave 2:

E|----------------------------------------------------------------
B|---------------------------------------12--9--12/14--12--14/17--
G|--------9--------9--9h11--9--11b13--9---------------------------
D|--9h11-----9h11-------------------------------------------------
A|----------------------------------------------------------------
E|----------------------------------------------------------------

Stave 3:

E|--
B|--
G|--
D|--
A|--
E|--

Stave 4:

E|---------------------------------------------------------------------------------------------------
B|--17--17--17p14--14--14--14\12--12--12--12\9-------------------------------------------------------
G|----------------------------------------------11--11h13p11--9------------9----------------------9--
D|---------------------------------------------------------------------11-----11--9------9--9h11-----
A|-----------------------------------------------------------------------------------11--------------
E|---------------------------------------------------------------------------------------------------

Stave 5:

E|----------------------------------------------------------------------------------------
B|----------------------------------------------------------------------------------------
G|------9-------------------9--9h11p9-------------------9--9--9--11b13--13--13--9--11--9--
D|--11-----11--9------9h11-------------11------9--9h11------------------------------------
A|----------------11-----------------------11---------------------------------------------
E|----------------------------------------------------------------------------------------

http://www.guitartabcreator.com
Guitar Tab Creator is intended to store guitar tab created through the tool. It currently does not support in-line text editing. Any text you place in here will be lost. If you need to comment on your tab, please use the "Tab Notes" section located below.