558 - vem, jesus cristo já vem (D)

01234567891011121314151617181920212223
E
B
G
D
A
E
B
0 1 2 3 4 5 6 7 8 9 10 11 12 13 14 15 16 17 18 19 20 21 22 23
(/) Slide Up  (\) Slide Down  (h) Hammer On  (p) Pull Off  (b) Bend (r) Release (v) Vibrato

Stave 1:

E|---7-----------7-----------7---8---9---|---9-----------9-----------10---|---9---9/10---10---|---10---10---10---10\9---:|---
B|-------7-----------7-------------------|-------9-----------9------------|-------------------|-------------------------:|---
G|-----------7-----------7---------------|-----------9-----------9--------|-------------------|-------------------------:|---
D|---------------------------------------|--------------------------------|-------------------|-------------------------:|---
A|---------------------------------------|--------------------------------|-------------------|-------------------------:|---
E|---------------------------------------|--------------------------------|-------------------|-------------------------:|---

Stave 2:

E|-------------------|--------------------|-----------------------------|---17---15---14v---|---12---10---14---12---10---14---:|---
B|-------------------|---------------10---|---10---9---10/12v---12/15---|-------------------|------------------12---10---14---:|---
G|-------2---4b/7v---|---7h6---7/9--------|-----------------------------|-------------------|---------------------------------:|---
D|---4---------------|--------------------|-----------------------------|-------------------|---------------------------------:|---
A|-------------------|--------------------|-----------------------------|-------------------|---------------------------------:|---
E|-------------------|--------------------|-----------------------------|-------------------|---------------------------------:|---

Stave 3:

E|----------------|-------------------|-----------
B|----------------|-------------------|-----------
G|----------------|-------------------|-----------
D|---7---9---14---|---7---9-------7---|---9---7---
A|---5---7---12---|-----------9---5---|---7---5---
E|----------------|-------------------|-----------

							http://www.guitartabcreator.com
Chords

genre
Instruments
{"strings":[[[7,".",".",7,".",".",7,8,9,"|",9,".",".",9,".",".",10,"|",9,9,"/",10,10,"|",10,10,10,10,"\\",9,":|"],[".",7,".",".",7,".",".",".",".","|",".",9,".",".",9,".",".","|",".",".",".",".",".","|",".",".",".",".",".",".",":|"],[".",".",7,".",".",7,".",".",".","|",".",".",9,".",".",9,".","|",".",".",".",".",".","|",".",".",".",".",".",".",":|"],[".",".",".",".",".",".",".",".",".","|",".",".",".",".",".",".",".","|",".",".",".",".",".","|",".",".",".",".",".",".",":|"],[".",".",".",".",".",".",".",".",".","|",".",".",".",".",".",".",".","|",".",".",".",".",".","|",".",".",".",".",".",".",":|"],[".",".",".",".",".",".",".",".",".","|",".",".",".",".",".",".",".","|",".",".",".",".",".","|",".",".",".",".",".",".",":|"]],[[".",".",".",".",".",".",".","|",".",".",".",".",".",".",".","|",".",".",".",".",".",".",".",".",".","|",17,15,14,"v","|",12,10,14,12,10,14,":|"],[".",".",".",".",".",".",".","|",".",".",".",".",".",".",10,"|",10,9,10,"/",12,"v",12,"/",15,"|",".",".",".",".","|",".",".",".",12,10,14,":|"],[".",2,4,"b","/",7,"v","|",7,"h",6,7,"/",9,".","|",".",".",".",".",".",".",".",".",".","|",".",".",".",".","|",".",".",".",".",".",".",":|"],[4,".",".",".",".",".",".","|",".",".",".",".",".",".",".","|",".",".",".",".",".",".",".",".",".","|",".",".",".",".","|",".",".",".",".",".",".",":|"],[".",".",".",".",".",".",".","|",".",".",".",".",".",".",".","|",".",".",".",".",".",".",".",".",".","|",".",".",".",".","|",".",".",".",".",".",".",":|"],[".",".",".",".",".",".",".","|",".",".",".",".",".",".",".","|",".",".",".",".",".",".",".",".",".","|",".",".",".",".","|",".",".",".",".",".",".",":|"]],[[".",".",".","|",".",".",".",".","|",".","."],[".",".",".","|",".",".",".",".","|",".","."],[".",".",".","|",".",".",".",".","|",".","."],[7,9,14,"|",7,9,".",7,"|",9,7],[5,7,12,"|",".",".",9,5,"|",7,5],[".",".",".","|",".",".",".",".","|",".","."]]],"numberofstrings":6,"notes":["E","B","G","D","A","E","B"],"capo":0,"stringnotes":["E4","B3","G3","D3","A2","E2"],"comments":["Stave 1:","Stave 2:","Stave 3:"],"timing":[["W","W","W","W","W","W","W","W","W",null,"W","W","W","W","W","W","W",null,"W","W",null,"W","W",null,"W","W","W","W",null,"W"],["W","W","W",null,null,"W",null,null,"W",null,"W","W",null,"W","W",null,"W","W","W",null,"W",null,"W",null,"W",null,"W","W","W",null,null,"W","W","W","W","W","W"],["W","W","W",null,"W","W","W","W",null,"W","W"]],"timingvisible":false,"tabcounter":10,"stave":2,"totalstaves":3,"instrument":"6guitar","selectedtuning":"6_standard","version":"13"}

Member for

1 month 1 week
Submitted by Wendell Andre Rocha on Wed, 2022-05-18 08:32