Sound will begin in 5 seconds

The Illusion (Part 1)

01234567891011121314151617181920212223
E
B
G
D
A
E
B
0 1 2 3 4 5 6 7 8 9 10 11 12 13 14 15 16 17 18 19 20 21 22 23
Song Science #1: How Pros Use 6 Chords to Write Hit Songs
(/) Slide Up  (\) Slide Down  (h) Hammer On  (p) Pull Off  (b) Bend (r) Release (v) Vibrato

Stave 1:

E|---------0-------------------0-------------------0-------------------0-----------
B|-------0---------0---------0---------0---------0---------0---------0---------0---
G|-----5---------5---0-----5---------5---0-----5---------5---0-----5---------5---0-
D|---3---------3---------3---------3---------3---------3---------3---------3-------
A|-0---------0---------0---------0---------0---------0---------0---------0---------
E|---------------------------------------------------------------------------------

Stave 2:

E|-----------------------------------------------------------------
B|-----------------------------------------------------------------
G|-----------------------------------------------------------------
D|-----0-------5-7-----0-------5-7-----0-------5-7-----0-----8-7-5-
A|-0-0---0-0-0-----0-0---0-0-0-----0-0---0-0-0-----0-0---0-0-------
E|-----------------------------------------------------------------

Stave 3:

E|----------------------------------------------------------------------
B|----------------------------------------------------------------------
G|----------------------------------------------------------------------
D|-----7-----7-----10-----9-----9-10-----7-----7-----10-----9-----12-10-
A|-0-0---0-0---0-0----0-0---0-0------0-0---0-0---0-0----0-0---0-0-------
E|----------------------------------------------------------------------

Stave 4:

E|----------------------------------------------------------------------
B|----------------------------------------------------------------------
G|----------------------------------------------------------------------
D|-----7-----7-----10-----9-----9-10-----7-----7-----12-----10-----9-10-
A|-0-0---0-0---0-0----0-0---0-0------0-0---0-0---0-0----0-0----0-0------
E|----------------------------------------------------------------------

Stave 5:

E|----------------------------------
B|----------------------------------
G|----------------------------------
D|-----9-10-----7-9-----5-7-----2-1-
A|-0-0------0-0-----0-0-----0-0-----
E|----------------------------------

Stave 6:

E|-
B|-
G|-
D|-
A|-
E|-

http://www.guitartabcreator.com
Guitar Tab Creator is intended to store guitar tab created through the tool. It currently does not support in-line text editing. Any text you place in here will be lost. If you need to comment on your tab, please use the "Tab Notes" section located below.