Sound will begin in 5 seconds

random

01234567891011121314151617181920212223
E
B
G
D
A
E
B
0 1 2 3 4 5 6 7 8 9 10 11 12 13 14 15 16 17 18 19 20 21 22 23
Song Science #1: How Pros Use 6 Chords to Write Hit Songs
(/) Slide Up  (\) Slide Down  (h) Hammer On  (p) Pull Off  (b) Bend (r) Release (v) Vibrato

Stave 1:

E|----------------------------------------------------------------------------------------------------------
B|-15-17-18----14-------------------------------------------------------------------------------------------
G|----------15----17-15-17--------------------------------------15------------------------------18-17-15-14-
D|-------------------------18-17-15-17-15-14--------------14h15-----------14h15h18--------14h15-------------
A|-------------------------------------------15-----14h15-----------14h15-----------14h15-------------------
E|----------------------------------------------------------------------------------------------------------

Stave 2:

E|--------------14h15p14h15-11h12p11h12-8h9p8h9-------------------------------
B|----------8/7---------------------------------9h10p9h10-6h7p6h7-4h6p4-------
G|-14-15-12-------------------------------------------------------------6p5-6p
D|----------------------------------------------------------------------------
A|----------------------------------------------------------------------------
E|----------------------------------------------------------------------------

Stave 3:

E|------
B|------
G|-5-17-
D|------
A|------
E|------

http://www.guitartabcreator.com
Guitar Tab Creator is intended to store guitar tab created through the tool. It currently does not support in-line text editing. Any text you place in here will be lost. If you need to comment on your tab, please use the "Tab Notes" section located below.