Sound will begin in 5 seconds

Untitled Song

Chords
01234567891011121314151617181920212223
E
B
G
D
A
E
B
0 1 2 3 4 5 6 7 8 9 10 11 12 13 14 15 16 17 18 19 20 21 22 23
(/) Slide Up  (\) Slide Down  (h) Hammer On  (p) Pull Off  (b) Bend (r) Release (v) Vibrato

Capo Fret 6

Stave 1:

C|--------------------------------------------------------------------------------------------------
C|--------------------------------------------------------------------------------------------------
G|--------4--------5--5--------0--------0-----------4--------5--------9--------7--------5--------4--
C|--0--------0-----------0--------0-----------0--------0--------0--------0--------0--------0--------
G|--------------------------------------------------------------------------------------------------
C|--4--4-----5--5--------0--0-----0--0--------4--4-----5--5-----9--9-----7--7-----5--5-----4--4-----

Stave 2:

C|-------------------------------------------------------------------------------------------------
C|-------------------------------------------------0--------0--------0--------0--------------------
G|--------4--------5--------9--------7-----12---------7--------9--------5--------------4--------0--
C|--0--------0--------0--------0-------------------------------------------------0--------0--------
G|-------------------------------------------------------------------------------------------------
C|--4--4-----5--5-----9--9-----7--7--------12--12-----7--7-----9--9-----5--5-----4--4-----0--0-----

Stave 3:

C|--0-----0-----0-----0-----0-----0-----0-----0--
C|--0-----0-----0-----0-----0-----0-----0-----0--
G|--4-----5-----0-----4-----5-----9-----7-----5--
C|--0-----0-----0-----0-----0-----0-----0-----0--
G|--0-----0-----0-----0-----0-----0-----0-----0--
C|--4-----5-----0-----4-----5-----9-----7-----5--

http://www.guitartabcreator.com
Guitar Tab Creator is intended to store guitar tab created through the tool. It currently does not support in-line text editing. Any text you place in here will be lost. If you need to comment on your tab, please use the "Tab Notes" section located below.