Sound will begin in 5 seconds

Song 4.14

01234567891011121314151617181920212223
E
B
G
D
A
E
B
0 1 2 3 4 5 6 7 8 9 10 11 12 13 14 15 16 17 18 19 20 21 22 23
Song Science #1: How Pros Use 6 Chords to Write Hit Songs
(/) Slide Up  (\) Slide Down  (h) Hammer On  (p) Pull Off  (b) Bend (r) Release (v) Vibrato

Stave 1:

C|-----------------|-----------------|-----------------|-----------|--
G|-----------------|-----------------|-----------------|-----------|--
D|-----------------|-----------------|-----------------|-----------|--
A|--5--5--5--5--5--|--1--1--1--1--1--|--4--4--4--4--4--|--0--0--0--|--
D|--5--5--5--5--5--|--1--1--1--1--1--|--4--4--4--4--4--|--0--0--0--|--
G|--0--0--0--0--0--|--0--0--0--0--0--|--0--0--0--0--0--|--0--0--0--|--

Stave 2:

C|-----------------|-----------------|-----------|-----------|--|-----------
G|-----------------|-----------------|-----------|-----------|--|-----------
D|-----------------|-----------------|-----------|-----------|--|-----------
A|--5--5--5--5--5--|--1--1--1--1--1--|--4--0--1--|--4--1--0--|--|--4--4--4--
D|--5--5--5--5--5--|--1--1--1--1--1--|--4--0--1--|--4--1--0--|--|--4--4--4--
G|--0--0--0--0--0--|--0--0--0--0--0--|--0--0--0--|--0--0--0--|--|--0--0--0--

Stave 3:

C|--------------------------|--|--------------------------|--
G|--------------------------|--|--------------------------|--
D|--------------------------|--|--------------------------|--
A|--------5--9-----------5--|--|-----------5-----------5--|--
D|-----6--------9-----6-----|--|--9-----6-----9-----6-----|--
G|--0--------------0--------|--|-----0-----------0--------|--

Stave 4:

C|--------------|-----------|-----------|-----------|--------------|-----------|-----------|--------------
G|--------------|-----------|-----------|-----------|--------------|-----------|-----------|--------------
D|--------------|--6--6--6--|-----------|--6--6--5--|--------------|--6--6--6--|-----------|--------------
A|--------------|--6--6--6--|-----------|--6--6--5--|--------------|--6--6--6--|-----------|--6--5--------
D|--0--0--0--0--|--6--6--6--|--0--0--0--|--6--6--5--|--0--0--0--0--|--6--6--6--|--0--0--0--|--6--5--6--5--
G|--0--0--0--0--|-----------|--0--0--0--|-----------|--0--0--0--0--|-----------|--0--0--0--|--------6--5--

Stave 5:

C|--------------|-----------|-----------|-----------|--------------|-----------|-----------|--------------
G|--------------|-----------|-----------|-----------|--------------|-----------|-----------|--------------
D|--------------|-----------|-----------|-----------|--------------|-----------|-----------|--------------
A|--------------|-----------|-----------|-----------|--------------|-----------|-----------|--------------
D|--------------|--6--6--6--|-----------|--6--5-----|--------------|--6--6--6--|-----------|--6--5--------
G|--0--0--0--0--|-----------|--0--0--0--|--------6--|--0--0--0--0--|-----------|--0--0--0--|--------6--5--

Stave 6:

C|--------------------------|-----------------------------|-----------------|-----------------|--
G|--------------------------|-----------------------------|-----------------|-----------------|--
D|--------------------------|-----------------------------|-----------------|-----------------|--
A|--------5--4-----------4--|-----------5--4-----------4--|-----------------|-----------------|--
D|-----5--------6-----5-----|-----------------6-----5-----|-----------------|-----------------|--
G|--0--------------0--------|--0--0--0-----------0--------|--0--0--0--1--1--|--0--0--0--1--1--|--

Stave 7:

C|-----------------------------|--|--------------------------
G|-----------------------------|--|--------------------------
D|-----------------------------|--|--------------------------
A|-----------------------------|--|--------------------------
D|-----------------6--5--------|--|--------------------------
G|--0--0--0--0--0--------6--5--|--|--3--3--2--5--4--4--3--6--

Stave 8:

C|------------------------------------------------------|--------------------|--------------------|--
G|------------------------------------------------------|--------------------|--------------------|--
D|------------------------------------------------------|--------------------|--------------------|--
A|------------------------------------------------------|--------------------|--------------------|--
D|--5--5--5--5--6--6--6--6--8--8--8--8--11--11--11--11--|-----------6--6--6--|-----------6--6--5--|--
G|------------------------------------------------------|--0--0--0-----------|--0--0--0-----------|--

Stave 9:

C|--------------------------------------|--
G|--------------------------------------|--
D|--------------------------------------|--
A|--------------------------------------|--
D|--4--4--4--4--4--5--0--0--0--1--1--1--|--
G|--------------------------------------|--

Stave 10:

C|--------------------|--------------------|--------------------|--------------------
G|--------------------|--------------------|--------------------|--------------------
D|--------------------|--------------------|--------------------|--------------------
A|--------------------|--------------------|--------------------|--------------------
D|--------------------|--------------------|--------------------|--------------------
G|--0--0--0--1--1--1--|--0--0--0--1--1--1--|--0--0--0--1--1--1--|--0--1--1--0--1--1--

Stave 11:

C|--------------------------------------|----------------------------
G|--------------------------------------|----------------------------
D|--------------------------------------|----------------------------
A|--------------------------------------|----------------------------
D|-----------6--6--6-----6--6-----6--5--|-----------6--6-----6--5----
G|--0--0--0-----------0--------0--------|--0--0--0--------0--------0b

Stave 12:

C|--------------------|--------------------
G|--------------------|--------------------
D|--------------------|--------------------
A|--------------------|--------------------
D|-----------6--6--6--|-----6--5-----6--5--
G|--0--0--0-----------|--0--------0--------

http://www.guitartabcreator.com
Guitar Tab Creator is intended to store guitar tab created through the tool. It currently does not support in-line text editing. Any text you place in here will be lost. If you need to comment on your tab, please use the "Tab Notes" section located below.