Sound will begin in 5 seconds

Song 4.13

01234567891011121314151617181920212223
E
B
G
D
A
E
B
0 1 2 3 4 5 6 7 8 9 10 11 12 13 14 15 16 17 18 19 20 21 22 23
Song Science #1: How Pros Use 6 Chords to Write Hit Songs
(/) Slide Up  (\) Slide Down  (h) Hammer On  (p) Pull Off  (b) Bend (r) Release (v) Vibrato

Stave 1:

C|---------------------------------|-|-
G|---------------------------------|-|-
D|---------------------------------|-|-
A|---------------------------------|-|-
D|---11-10---7-8---11-10---7-8---5-|-|-
G|-0-------0-----0-------0-----0---|-|-

Stave 2:

C|---------------------------------------|---------------------------------------|-
G|---------------------------------------|---------------------------------------|-
D|---------------------------------------|---------------------------------------|-
A|-----------11--------------11----10----|-----------11--------------11----13----|-
D|---13-12------12---13-12------12----11-|---13-12------12---13-12------12----12-|-
G|-0-------0-------0-------0-------------|-0-------0-------0-------0-------------|-

Stave 3:

C|-------------------------------------|-------------------------------------|-|-
G|-------------------------------------|-------------------------------------|-|-
D|-------------------------------------|-------------------------------------|-|-
A|-----------11------------11----10----|-----------11------------11----------|-|-
D|---13-12------12---13-12----12----11-|---13-12------12---13-12----12-10-11-|-|-
G|-0-------0-------0-------------------|-0-------0-------0-------------------|-|-

Stave 4:

C|---------------------------|-----------------------------|-|-
G|---------------------------|-----------------------------|-|-
D|---------------------------|-----------------------------|-|-
A|---------------------------|-----------------------------|-|-
D|-5-5-5-5-5-5-5/8-8-8\7-7-7-|-3-3-3-3-3-3-3/7-7-7-7-8-7-3-|-|-
G|---------------------------|-----------------------------|-|-

Stave 5:

C|---------------|------------------------|-
G|---------------|------------------------|-
D|---------------|------------------------|-
A|---------------|------------------------|-
D|---------------|------------------------|-
G|-0-0-0--0-0-0--|-1--0-0-0-1-3-3-3-3-1-0-|-

Stave 6:

C|---------------|-------------------|-
G|---------------|-------------------|-
D|---------------|-------------------|-
A|---------------|-------------------|-
D|---------------|-------------------|-
G|-0-0-0--0-0-0--|-1-0-1-3-4-0-3-4-6-|-

Stave 7:

C|-----------------|-----------------|-
G|-----------------|-----------------|-
D|-----------------|-----------------|-
A|-----------------|-----------------|-
D|-----------------|-----------------|-
G|-8-8-8-8-8-8-7-7-|-8-8-8-8-3-3-5-5-|-

Stave 8:

C|---------------|-----------------|-|---------------|----------------------|-|-
G|---------------|-----------------|-|---------------|----------------------|-|-
D|---------------|-----------------|-|---------------|----------------------|-|-
A|---------------|-----------------|-|---------------|----------------------|-|-
D|---------------|-----------------|-|---------------|----------------------|-|-
G|-0-0-0--0-0-0--|-1--0-0-0--0-0-0-|-|-0-0-0--0-0-0--|-0-0-0--0-0-0--0-0-0--|-|-

http://www.guitartabcreator.com
Guitar Tab Creator is intended to store guitar tab created through the tool. It currently does not support in-line text editing. Any text you place in here will be lost. If you need to comment on your tab, please use the "Tab Notes" section located below.