Sound will begin in 5 seconds

Song 4.12

01234567891011121314151617181920212223
E
B
G
D
A
E
B
0 1 2 3 4 5 6 7 8 9 10 11 12 13 14 15 16 17 18 19 20 21 22 23
Song Science #1: How Pros Use 6 Chords to Write Hit Songs
(/) Slide Up  (\) Slide Down  (h) Hammer On  (p) Pull Off  (b) Bend (r) Release (v) Vibrato

Stave 1:

C|----------------------------|----------------------------|-|----------------------------|-|-
G|----------------------------|----------------------------|-|----------------------------|-|-
D|----------------------------|----------------------------|-|----------------------------|-|-
A|----------------------------|----------------------------|-|----------------------------|-|-
D|-5-5-5--5-5-5--5-5-5--6-6-6-|-5-5-5--6-6-6--5-5-5--8-8-8-|-|-5-5-5--6-6-6--8-8-8--6-6-6-|-|-
G|----------------------------|----------------------------|-|----------------------------|-|-

Stave 2:

C|----------------------------|-|-----------------------------|-----------------------------|-
G|----------------------------|-|-----------------------------|-----------------------------|-
D|----------------------------|-|-----------------------------|-----------------------------|-
A|----------------------------|-|-----------------------------|-----------------------------|-
D|-5-5-5--8-8-8--6-6-6--5-5-5-|-|-1-1-1--1-1-1--1-1-1--3-3-3--|-1-1-1--1-1-1--1-1-1--4-4-4--|-
G|----------------------------|-|-----------------------------|-----------------------------|-

Stave 3:

C|-----------------------------|----------------------------|-|-|-
G|-----------------------------|----------------------------|-|-|-
D|-----------------------------|----------------------------|-|-|-
A|-----------------------------|----------------------------|-|-|-
D|-1-1-1--1-1-1--1-1-1--3-3-3--|-1-1-1--3-3-3--4-4-4--3-3-3-|-|-|-
G|-----------------------------|----------------------------|-|-|-

Stave 4:

C|---------------------------------|-|---------------------------------|-|-
G|---------------------------------|-|---------------------------------|-|-
D|---------------------------------|-|---------------------------------|-|-
A|-------3-------4-------5-------8-|-|-------3-------4-------5-8-8-8-8-|-|-
D|---0-5-----0-5-----0-5-----0-5---|-|---0-5-----0-5-----0-5---5-5-5-5-|-|-
G|-0-------0-------0-------0-------|-|-0-------0-------0-------0-0-0-0-|-|-

Stave 5:

C|---------------------------------|-|---------------------------|-|-|-
G|---------------------------------|-|---------------------------|-|-|-
D|---------------------------------|-|---------------------------|-|-|-
A|-------3-------4-------5-------8-|-|-8-8-8-8-8-8-8-8-10--------|-|-|-
D|-0-0-0-5-0-0-0-5-0-0-0-5-0-0-0-5-|-|-5-5-5-5-5-5-5-5-8---------|-|-|-
G|-0-0-0---0-0-0---0-0-0---0-0-0---|-|---------------------------|-|-|-

Stave 6:

C|------------------------------------------|-|---------------------------------------|-|-|-
G|------------------------------------------|-|---------------------------------------|-|-|-
D|------------------------------------------|-|---------------------------------------|-|-|-
A|------------------------------------------|-|---------------------------------------|-|-|-
D|-0--11p10-8-0-5/8-0-11--11-10-8-0-11-10-8-|-|-0-11p10-0-5/8-0-11--11-10-8-0-8-10-11-|-|-|-
G|------------------------------------------|-|---------------------------------------|-|-|-

Stave 7:

C|---------------------------------------------------|-|-|-
G|---------------------------------------------------|-|-|-
D|---------12---------11---------10-11-11-11-11-10\8-|-|-|-
A|------12---------11---------10----11-11-11-11-10-8-|-|-|-
D|---12---------11---------10-------11-11-11-11-10-8-|-|-|-
G|-0----------0----------0---------------------------|-|-|-

Stave 8:

C|---|---|---|---|-|-|-
G|---|---|---|---|-|-|-
D|---|---|---|---|-|-|-
A|---|---|---|---|-|-|-
D|-5-|-4-|-8-|-1-|-|-|-
G|---|---|---|---|-|-|-

Stave 9:

C|----------------------------------|-|-|-
G|----------------------------------|-|-|-
D|----------------------------------|-|-|-
A|---5p4----------------------------|-|-|-
D|-------5-0-1/4---5--5-4-1---5-4-1-|-|-|-
G|-0-------------0----------0-------|-|-|-

Stave 10:

C|-------------------------------------|-|-------------|-|-------------|-|--------------------|-|-|-
G|-------------------------------------|-|-------------|-|-------------|-|--------------------|-|-|-
D|-------------------------------------|-|-------------|-|-----------5-|-|--------------------|-|-|-
A|-------5-------6-------5-6-6-6-6-5---|-|-6-6-6-6-5-8-|-|-6-6-6-6-5---|-|-6--5-6--6--5-6-8-8-|-|-|-
D|---5-8-----5-8-----5-8-------------8-|-|-------------|-|-------------|-|--------------------|-|-|-
G|-0-------0-------0-------------------|-|-------------|-|-------------|-|--------------------|-|-|-

http://www.guitartabcreator.com
Guitar Tab Creator is intended to store guitar tab created through the tool. It currently does not support in-line text editing. Any text you place in here will be lost. If you need to comment on your tab, please use the "Tab Notes" section located below.