Sound will begin in 5 seconds

Song 4.11

01234567891011121314151617181920212223
E
B
G
D
A
E
B
0 1 2 3 4 5 6 7 8 9 10 11 12 13 14 15 16 17 18 19 20 21 22 23
Song Science #1: How Pros Use 6 Chords to Write Hit Songs
(/) Slide Up  (\) Slide Down  (h) Hammer On  (p) Pull Off  (b) Bend (r) Release (v) Vibrato

Stave 1:

C|---------------------|-|-----------------------------|-|-|-
G|---------------------|-|-----------------------------|-|-|-
D|---------------------|-|-----------------------------|-|-|-
A|---------------------|-|-----------------------------|-|-|-
D|---6---5---6---5---3-|-|---6p5---6p5---6p5---6p5---3-|-|-|-
G|-0---0---0---0---0---|-|-0-----0-----0-----0-----0---|-|-|-

Stave 2:

C|---------------------------|---------------|-|-|-
G|---------------------------|---------------|-|-|-
D|---------------------------|---------------|-|-|-
A|---------------------------|---------------|-|-|-
D|-5--5-5-5--3-5--5-5-5-6--6-|--3-3-6---8--9-|-|-|-
G|---------------------------|---------------|-|-|-

Stave 3:

C|------------------------------------|-|-------------|-|-|-
G|------------------------------------|-|-------------|-|-|-
D|------------------------------------|-|-------------|-|-|-
A|------------------------------------|-|-------------|-|-|-
D|-0-0-0-0-1p0-0-0-0-0-11p10-0-0-10p9-|-|-------------|-|-|-
G|------------------------------------|-|-6-0-5-0-3/6-|-|-|-

Stave 4:

C|--------------------------------------|---------------------------------------|-|-----------|-|-|-
G|--------------------------------------|---------------------------------------|-|-----------|-|-|-
D|--------------------------------------|---------------------------------------|-|-----------|-|-|-
A|--------------------------------------|---------------------------------------|-|-----------|-|-|-
D|--------------------------------------|---------------------------------------|-|-----------|-|-|-
G|-7-7-7-7-7-7-7-7-7--7-7--7-7--5-7-8p7-|-8-8-8-8-8-8-8-8-8--8-8--8-8--7-8-10\8-|-|-7-8-10-11-|-|-|-

Stave 5:

C|----|----|---|-------------|----|----|---|-------------|-|-|-
G|----|----|---|-------------|----|----|---|-------------|-|-|-
D|----|----|---|-------------|----|----|---|-------------|-|-|-
A|----|----|---|-------------|----|----|---|-------------|-|-|-
D|----|----|---|-------------|----|----|---|-------------|-|-|-
G|-12-|-11-|-8-|-7---8---11--|-12-|-15-|-8-|-7---8---11--|-|-|-

http://www.guitartabcreator.com
Guitar Tab Creator is intended to store guitar tab created through the tool. It currently does not support in-line text editing. Any text you place in here will be lost. If you need to comment on your tab, please use the "Tab Notes" section located below.