Sound will begin in 5 seconds

sugar song to bitter step

01234567891011121314151617181920212223
E
B
G
D
A
E
B
0 1 2 3 4 5 6 7 8 9 10 11 12 13 14 15 16 17 18 19 20 21 22 23
Song Science #1: How Pros Use 6 Chords to Write Hit Songs
(/) Slide Up  (\) Slide Down  (h) Hammer On  (p) Pull Off  (b) Bend (r) Release (v) Vibrato

Stave 1:

E|--------------------------------------------------------------
B|--------------------------------------------------------------
G|--11--11--11--11--10------------------------------------------
D|----------------------13--11--11------11------11--13--13------
A|----------------------------------13------13--------------13--
E|--------------------------------------------------------------

Stave 2:

E|------------------------------------------------------------------
B|------------------------------------------------------------------
G|------------------------------------------------------------------
D|----------------------13--13--13--13--11----------13--13--10--11--
A|--13--11--11--10--11----------------------13--13------------------
E|------------------------------------------------------------------

Stave 3:

E|--------------------------------------------------
B|----------------------------------11--------------
G|--10--11--13--10--------------13------13--11------
D|------------------13--11--------------------------
A|--------------------------13------------------13--
E|--------------------------------------------------

Stave 4:

E|------------------------------------------
B|------------------------------------------
G|------------------------------------------
D|------11------11--------------------------
A|--14------14------14--13------13--11--14--
E|--------------------------14--------------

Stave 5:

E|--------------------------------------------------------------
B|--------------------------------------------------------------
G|--11--11--11--11--10------------------------------------------
D|----------------------13--11--11------11------11--13--13------
A|----------------------------------13------13--------------13--
E|--------------------------------------------------------------

Stave 6:

E|------------------------------------------------------------------
B|------------------------------------------------------------------
G|------------------------------------------------------------------
D|----------------------13--13--13--13--11----------13--13--10--11--
A|--13--11--11--10--11----------------------13--13------------------
E|------------------------------------------------------------------

Stave 7:

E|--------------------------------------------------
B|----------------------------------11--------------
G|--10--11--13--10--------------13------13--11------
D|------------------13--11--------------------------
A|--------------------------13------------------13--
E|--------------------------------------------------

Stave 8:

E|----------------------------------------------
B|----------------------------------------------
G|------------------------------------------11--
D|------11--13--11------------------------------
A|--14--------------14--14--13------11----------
E|------------------------------14------14------

Stave 9:

E|----------------------------------------------------------
B|------11--------------------------11----------------------
G|--13------13--11--13------11--13------13--11--13------11--
D|----------------------13--------------------------13------
A|----------------------------------------------------------
E|----------------------------------------------------------

Stave 10:

E|------------------------------------------------------------------
B|--11--12--11--12--11--------------11--12--11--12--11--------------
G|----------------------13--11--------------------------13--11------
D|------------------------------11------------------------------11--
A|------------------------------------------------------------------
E|------------------------------------------------------------------

Stave 11:

E|------------------------------------------
B|------------------------------------------
G|------------------11--11--13--11--13--11--
D|--11--------------------------------------
A|------14--13--14--------------------------
E|------------------------------------------

Stave 12:

E|----------------------------------------------------------
B|--------------------------11--12--11--12--11--------------
G|--11--10--10----------------------------------13--12--13--
D|--------------13--11--11----------------------------------
A|----------------------------------------------------------
E|----------------------------------------------------------

Stave 13:

E|----------------------------------------------------------------------
B|----------------------------------------------------------11--11--11--
G|------10--11----------11--11--13--11--11--13--11--11--13--------------
D|--13----------11--13--------------------------------------------------
A|----------------------------------------------------------------------
E|----------------------------------------------------------------------

Stave 14:

E|--------------------------------------------------------------
B|--12--11----------------------11----------------------11------
G|----------13--11--10--11--13------13--11--13--11--13------11--
D|--------------------------------------------------------------
A|--------------------------------------------------------------
E|--------------------------------------------------------------

Stave 15:

E|------------------------------------------------------------------
B|------------------------------------------------------11--11--11--
G|------10--11----------11--11--13--11--11--13--11--13--------------
D|--13----------11--13----------------------------------------------
A|------------------------------------------------------------------
E|------------------------------------------------------------------

Stave 16:

E|------------------------------------------------------------------
B|--12--11--------------------------12--11--------------------------
G|----------13--11--11------10--11----------13--11--11--14--13--11--
D|----------------------13------------------------------------------
A|------------------------------------------------------------------
E|------------------------------------------------------------------

Stave 17:

E|----------------------------------------------------------
B|----------12----------------------------------------------
G|--11--14--------------11----------11------11--11--14--11--
D|--------------14--15------14--14------14------------------
A|----------------------------------------------------------
E|----------------------------------------------------------

Stave 18:

E|--------------------------------------
B|--------------------------------------
G|----------10--11----------11--11--13--
D|--13--13----------11--13--------------
A|--------------------------------------
E|--------------------------------------

Stave 19:

E|--------------------------------------------------------------
B|----------------------11--------------------------------------
G|--11--11--13--11--13------11------10--11----------11--11--13--
D|------------------------------13----------11--13--------------
A|--------------------------------------------------------------
E|--------------------------------------------------------------

Stave 20:

E|--------------------------------------------------------------
B|----------------------11--------------------------------------
G|--13--11--13--11--13------11------10--11----------11--11--13--
D|------------------------------13----------11--13--------------
A|--------------------------------------------------------------
E|--------------------------------------------------------------

Stave 21:

E|--------------------------------------
B|--12--11--------------------------12--
G|----------13--11--11------10--11------
D|----------------------13--------------
A|--------------------------------------
E|--------------------------------------

Stave 22:

E|------------------------------------------------------
B|--11----------------------------------12--------------
G|------13--11--11--14--13--11--11--14--------------11--
D|------------------------------------------14--15------
A|------------------------------------------------------
E|------------------------------------------------------

Stave 23:

E|--------------------------------------------------------------
B|----------------------------------------------12--------------
G|----------11------11--11--14--11------11--14--------------11--
D|--14--14------14------------------14--------------14--15------
A|--------------------------------------------------------------
E|--------------------------------------------------------------

Stave 24:

E|----------------------------------
B|----------------------------------
G|----------11------11--11--14--11--
D|--14--14------14------------------
A|----------------------------------
E|----------------------------------

http://www.guitartabcreator.com
Guitar Tab Creator is intended to store guitar tab created through the tool. It currently does not support in-line text editing. Any text you place in here will be lost. If you need to comment on your tab, please use the "Tab Notes" section located below.