sanity breaks

Chords

01234567891011121314151617181920212223
E
B
G
D
A
E
B
0 1 2 3 4 5 6 7 8 9 10 11 12 13 14 15 16 17 18 19 20 21 22 23
(/) Slide Up  (\) Slide Down  (h) Hammer On  (p) Pull Off  (b) Bend (r) Release (v) Vibrato


E|--------------------------------------------------
B|--------------------------------------------------
G|--------------------------------------------------
D|--------------------------------------------------
A|--------------------------------------------------
E|--0--3--6--5--3--5--3--2--0--2--3--2--0--1--2--1--



E|--------------------------------------------------------------
B|--------------------------------------------------------------
G|--------------------------------------------------------------
D|--------------------------------------------------------------
A|--0--1--0--1--3--2--1--0--3--2--1--0--0--1--0--1--------------
E|--------------------------------------------------0--1--2--3--



E|--------------------------
B|--------------------------
G|--------------------------
D|--------------------------
A|--0--3--6--5--3--5--3--2--
E|--------------------------



E|-----------------------------------------------------
B|-----------------------------------------------------
G|-----------------------------------------------------
D|--------------------------------------3--------------
A|--0--3--6--5--3--5--3--2--0--3--5--6-----6--5--3-----
E|-----------------------------------------------------



E|--------------------------------------------------
B|--------------------------------------------------
G|--------------------------------------------------
D|--------------------------4--3--0--3--2--0--2--1--
A|--0--3--6--5--3--5--3--2--------------------------
E|--------------------------------------------------



E|--
B|--
G|--
D|--
A|--
E|--
							http://www.guitartabcreator.com
[[],[],[],[],[],[]]

Member for

7 years 7 months
Submitted by VOM675 on Thu, 2012-10-11 21:44