Sound will begin in 5 seconds

WEIRD

01234567891011121314151617181920212223
E
B
G
D
A
E
B
0 1 2 3 4 5 6 7 8 9 10 11 12 13 14 15 16 17 18 19 20 21 22 23
Song Science #1: How Pros Use 6 Chords to Write Hit Songs
(/) Slide Up  (\) Slide Down  (h) Hammer On  (p) Pull Off  (b) Bend (r) Release (v) Vibrato

Stave 1:

E|-----------------------------------
B|-----------------------------------
G|-----------------------------------
D|--------------------------0--------
A|-----0-----0--------0--------0-----
E|--4-----4-----4--2-----2--------2--

Stave 2:

E|--------------------7--------------------12--------------------7--------------------------12--12--12--
B|--------------------7--------------------12--------------------7--------------------------12--12--12--
G|--------------------7--------------------12--------------------7--------------------------12--12--12--
D|--------------0-----7--------------0-----12--------------0-----7--------------0-----------12--12--12--
A|-----0--2--0-----4--7-----0--2--0-----0--12-----0--2--0-----4--7-----0--2--0-----4--2--0--12--12--12--
E|--0-----------------7--0-----------------12--0-----------------7--0-----------------------12--12--12--

Stave 3:

E|--------------------5--------------------7--------------------5--------------------------7--7--7--
B|--------------------5--------------------7--------------------5--------------------------7--7--7--
G|--------------0-----5--------------0-----7--------------0-----5--------------0-----------7--7--7--
D|-----0--2--0-----4--5-----0--2--0-----0--7-----0--2--0-----4--5-----0--2--0-----4--2--0--7--7--7--
A|--0-----------------5--0-----------------7--0-----------------5--0-----------------------7--7--7--
E|--------------------5--------------------7--------------------5--------------------------7--7--7--

Stave 4:

E|-----0-----------------------------0-----------------
B|--------0-----------0-----------0-----0--------0-----
G|-----------0-----0-----------0-----------0--------0--
D|--------------------------0--------------------------
A|-----------------------------------------------------
E|--2-----------4--------5--------------------4--------

Stave 5:

E|--------------------------------------------------------------------------
B|--------------------------------------------------------------------------
G|--------------------------------------------------------------------------
D|-----5--------5--------5--------5--------4--------4--------4--------4-----
A|--------4--------4--------4--------4--------2--------2--------2--------2--
E|--4--------4--------4--------4--------2--------2--------2--------2--------

Stave 6:

E|--------------------------------------------------------------------------
B|--------------------------------------------------------------------------
G|--------------------------------------------------------------------------
D|-----7--------5--------4--------4--------2--------2--------0--------0-----
A|--------5--------4--------2--------2--------2--------2--------2--------2--
E|--5--------4--------2--------2--------2--------2--------2--------2--------

Stave 7:

E|--------------------------------------------------------------------------
B|--------------------------------------------------------------------------
G|--------------------------------------------------------------------------
D|-----2--------2--------2--------2--------7--------7--------5--------5-----
A|--------0--------0--------0--------0--------0--------0--------0--------0--
E|--0--------0--------0--------0--------0--------0--------0--------0--------

Stave 8:

E|--------------------------------------------------------------------------
B|--------------------------------------------------------------------------
G|--------------------------------------------------------------------------
D|-----2--------2--------2--------2--------7--------5--------9--------5-----
A|--------0--------0--------0--------0--------0--------0--------0--------0--
E|--0--------0--------0--------0--------0--------0--------0--------0--------

Stave 9:

E|--
B|--
G|--
D|--
A|--
E|--

Stave 10:

E|--
B|--
G|--
D|--
A|--
E|--

Stave 11:

E|--
B|--
G|--
D|--
A|--
E|--

Stave 12:

E|--
B|--
G|--
D|--
A|--
E|--

Stave 13:

E|--
B|--
G|--
D|--
A|--
E|--

Stave 14:

E|--
B|--
G|--
D|--
A|--
E|--

Stave 15:

E|--
B|--
G|--
D|--
A|--
E|--

http://www.guitartabcreator.com
Guitar Tab Creator is intended to store guitar tab created through the tool. It currently does not support in-line text editing. Any text you place in here will be lost. If you need to comment on your tab, please use the "Tab Notes" section located below.