Sound will begin in 5 seconds

Snehithane Snehithane Tamil Song Guitar lead Tabs-By Vijay

01234567891011121314151617181920212223
E
B
G
D
A
E
B
0 1 2 3 4 5 6 7 8 9 10 11 12 13 14 15 16 17 18 19 20 21 22 23
Song Science #1: How Pros Use 6 Chords to Write Hit Songs
(/) Slide Up  (\) Slide Down  (h) Hammer On  (p) Pull Off  (b) Bend (r) Release (v) Vibrato

Stave 1:

E|-------------8---------------10--8------------------------------------
B|--8----8--9---------8--8--8-------------8--9--8----------------9--8v--
G|-------------------------------------------------10--8------8---------
D|----------------------------------------------------------------------
A|----------------------------------------------------------------------
E|----------------------------------------------------------------------

Stave 2:

E|--------------8--------------10--8v-------------------------------------
B|--8--8--8--9---------8----8--------------8--9--8-----------------9--8v--
G|--------------------------------------------------10--8v------8---------
D|------------------------------------------------------------------------
A|------------------------------------------------------------------------
E|------------------------------------------------------------------------

Stave 3:

E|---------------8--10------8--------------------------8--10------8--------
B|--8--9v----11----------------9--8v------8--9v----11----------------9--8--
G|-------------------------------------------------------------------------
D|-------------------------------------------------------------------------
A|-------------------------------------------------------------------------
E|-------------------------------------------------------------------------

Stave 4:

E|----------------10--8--10v----8---------------------------------------------------
B|--8--9--11-----------------------11--9--8----8--8--9--9--11--9--8--8--------------
G|----------------------------------------------------------------------10--10--8v--
D|----------------------------------------------------------------------------------
A|----------------------------------------------------------------------------------
E|----------------------------------------------------------------------------------

Stave 5:

E|---------8--------------------------8----------------8--------------------------8----------8--11--11v--8--10--8v--
B|--8--10-----10--8--10--8-----8--10---------8--8--10-----10--8--10--8-----8--10---------10-------------------------
G|--------------------------9-------------------------------------------9-------------------------------------------
D|------------------------------------------------------------------------------------------------------------------
A|------------------------------------------------------------------------------------------------------------------
E|------------------------------------------------------------------------------------------------------------------

Stave 6:

E|--8\6------6--8--8----8--8--8/10------6--8--8----8--8--8/10------6--8--6--4--3--3--4/6--4--
B|-------------------------------------------------------------------------------------------
G|-------------------------------------------------------------------------------------------
D|-------------------------------------------------------------------------------------------
A|-------------------------------------------------------------------------------------------
E|-------------------------------------------------------------------------------------------

Stave 7:

E|--3--1------------------------------------------------------------------------------------------
B|------------------------------------------------------------------------------------------------
G|------------------------------------------------------------------------------------------------
D|------------------------------------------------------------------------------------------------
A|------------------------------------------------------------------------------------------------
E|------------------------------------------------------------------------------------------------

http://www.guitartabcreator.com
Guitar Tab Creator is intended to store guitar tab created through the tool. It currently does not support in-line text editing. Any text you place in here will be lost. If you need to comment on your tab, please use the "Tab Notes" section located below.