Sound will begin in 5 seconds

Cryptopsy - Mutant Christ bass tab

01234567891011121314151617181920212223
E
B
G
D
A
E
B
0 1 2 3 4 5 6 7 8 9 10 11 12 13 14 15 16 17 18 19 20 21 22 23
Song Science #1: How Pros Use 6 Chords to Write Hit Songs
(/) Slide Up  (\) Slide Down  (h) Hammer On  (p) Pull Off  (b) Bend (r) Release (v) Vibrato

Stave 1:

E|-------------8--8--8-----------------------------------
B|----------------------10--10--10--7--7--7--------------
G|-------------------------------------------9--9--9-----
D|-------------------------------------------------------
A|-------------------------------------------------------
E|------0---------------------------------------------0--

Stave 2:

E|----------------8--8--8-----------------------------------
B|-------------------------10--10--10--7--7--7--------------
G|----------------------------------------------9--9--9-----
D|----------------------------------------------------------
A|----------------------------------------------------------
E|--1--------0----------------------------------------------

Stave 3:

E|----------------------------------------8--8--8--------------------------------
B|-------------------------------------------------10--10--10--7--7--7-----------
G|----------------------------------------------------------------------9--9--9--
D|-------------------------------------------------------------------------------
A|--------2--1----------------------2--1-----------------------------------------
E|--0--3--------2--------1----0--3-----------------------------------------------

Stave 4:

E|--------------------------------------------------------------------------8--8--8-----------------------------------
B|-----------------------------------------------------------------------------------10--10--10--7--7--7--------------
G|--------------------------------------------------------------------------------------------------------9--9--9-----
D|--------------------------------------------------------------------------------------------------------------------
A|--------------2--2--1--1--------------------------------------2--2--1--1--------------------------------------------
E|--0--0--3--3--------------2--2--2--2--1--1--1--1--0--0--3--3-----------------------------------------------------0--

Stave 5:

E|-----------------------------------------------
B|-----------------------------------------------
G|-----------------------------------------------
D|-----------------------------------------------
A|--------------------------------------------1--
E|--0------0--0--0----0--0--0--0--3--2--0--1-----

Stave 6:

E|----------------------------------------------------
B|----------------------------------------------------
G|----------------------------------------------------
D|----------------------------------------------------
A|----------------1-----------------------------------
E|--3--2----0--1-----0----0--0----0--0--0----0--0-----

Stave 7:

E|----------------------------------------------------------------------------------------------
B|----------------------------------------------------------------------------------------------
G|----------------------------------------------------------------------------------------------
D|----------------------------------------------------------------------------------------------
A|----------------1-----------------------------------------------------------------------------
E|--3--2----0--1--------------------------------------------------------------------------------

Stave 8:

E|--------------------------------------------------------------------------
B|--------------------------------------------------------------------------
G|--------------------------------------------------------------------------
D|--------------------------------------------------------------------------
A|-----------------------------------------------------------------6--6--6--
E|--5--5--5--5--5--5--7--7--7--8--8--8--7--7--7--7--7--7--6--6--6-----------

Stave 9:

E|--------------------------------------------------------------------------
B|--------------------------------------------------------------------------
G|--------------------------------------------------------------------------
D|--------------------------------------------------------4--4--4--5--5--5--
A|-----------------------------------------------6--6--6--------------------
E|--5--5--5--5--5--5--7--7--7--8--8--8--7--7--7-----------------------------

Stave 10:

E|-----
B|-----
G|-----
D|--0--
A|-----
E|-----

Stave 11:

E|--------------------------------
B|--------------------------------
G|--------------------------------
D|--------4--5--------------------
A|--5--4--------7--7--7--7--7--7--
E|--------------------------------

Stave 12:

E|--------------------------------------------------------
B|--------------------------------------------------------
G|--------------------------------------------------------
D|--------4--3-----------------------4--3-----------------
A|--5--4--------4--3-----------5--4--------4--3-----------
E|--------------------6--6--6--------------------6--6--6--

Stave 13:

E|-------------------------------------------------------------------
B|-------------------------------------------------------------------
G|-------------------------------------------------------------------
D|-------------------------------------------------------------------
A|-------------2--1----------------2--1------------------------------
E|--0----------------0----------0--------1---------------------------

Stave 14:

E|---------------------------------------------------
B|---------------------------------------------------
G|---------------------------------------------------
D|--------4--5------------------------------4--5-----
A|--5--4--------7--7--7--7--7--7------5--4--------7--
E|---------------------------------------------------

http://www.guitartabcreator.com
Guitar Tab Creator is intended to store guitar tab created through the tool. It currently does not support in-line text editing. Any text you place in here will be lost. If you need to comment on your tab, please use the "Tab Notes" section located below.