Sound will begin in 5 seconds

Danzo En El Río

01234567891011121314151617181920212223
E
B
G
D
A
E
B
0 1 2 3 4 5 6 7 8 9 10 11 12 13 14 15 16 17 18 19 20 21 22 23
(/) Slide Up  (\) Slide Down  (h) Hammer On  (p) Pull Off  (b) Bend (r) Release (v) Vibrato

Stave 1:

E|---------------------------------------v--v--v--14--14--
B|---15------------------------15--15--14-----------------
G|-------16--16--14--12-----------------------------------
D|--------------------------------------------------------
A|--------------------------------------------------------
E|--\-----------------------------------------------------

Stave 2:

E|--------------------------------
B|--15-----15---------------------
G|-------------16-----16--14------
D|----------------------------16--
A|--------------------------------
E|--------------------------------

Stave 3:

E|--------------------------------
B|--15-----15--14-----15--14------
G|----------------------------14--
D|--------------------------------
A|--------------------------------
E|--------------------------------

Stave 4:

E|--------------------------------
B|--15-----15---------------------
G|-------------16-----16--14------
D|----------------------------16--
A|--------------------------------
E|--------------------------------

Stave 5:

E|--------------------14--
B|--15-----15--17---------
G|------------------------
D|------------------------
A|------------------------
E|------------------------

http://www.guitartabcreator.com
Guitar Tab Creator is intended to store guitar tab created through the tool. It currently does not support in-line text editing. Any text you place in here will be lost. If you need to comment on your tab, please use the "Tab Notes" section located below.