Sound will begin in 5 seconds

Supercell

01234567891011121314151617181920212223
E
B
G
D
A
E
B
0 1 2 3 4 5 6 7 8 9 10 11 12 13 14 15 16 17 18 19 20 21 22 23
Song Science #1: How Pros Use 6 Chords to Write Hit Songs
(/) Slide Up  (\) Slide Down  (h) Hammer On  (p) Pull Off  (b) Bend (r) Release (v) Vibrato

Stave 1:

E|-------------------------------------------------
B|-------------------------------------------------
G|-------------------------------------------------
D|--14b16--14b16--14b15--14b15--14b15--14--14--14--
A|-------------------------------------------------
E|-------------------------------------------------

Stave 2:

E|----------------------------
B|----------------------------
G|----------------------------
D|--2----2--2--2--2--2--2-----
A|--2----2--2--2--2--2--2-----
E|--0----0--0--0--0--0--0--0--

Stave 3:

E|----------------------------------------------------------------------------
B|----------------------------------------------------------------------------
G|----------------------------------------------------------------------------
D|----------------------------------------------------------------------------
A|----------------------------------------------------------------------------
E|--12\0/0----0--0--0----0--0--0----0--0--0----0--0--0----0--0--0----0--0--0--

Stave 4:

E|----------------------------------------------------------------------------------
B|----------------------------------------------------------------------------------
G|----------------------------------------------------------------------------------
D|----------------------------------------------------------------------------------
A|----------------------------------------------------------------------------------
E|--0----0--0--0----0--0--0----0--0--0----0--0--0----0--0--0----0--0--0----0--0--1--

Stave 5:

E|------------------------------------------------------------------------
B|------------------------------------------------------------------------
G|------------------------------------------------------------------------
D|--2--x--x--2--x--x--2--x--x--3------2--x--x--2--x--x--2--x--x-----------
A|--2--x--x--2--x--x--2--x--x--3------2--x--x--2--x--x--2--x--x-----------
E|--0--x--x--0--x--x--0--x--x--1------0--x--x--0--x--x--0--x--x--1h2p1\0--

Stave 6:

E|----------------------------
B|----------------------------
G|----------------------------
D|--2h3p2------------------2--
A|--2----------------------2--
E|--0------3--2--2h3p2--0--0--

http://www.guitartabcreator.com
Guitar Tab Creator is intended to store guitar tab created through the tool. It currently does not support in-line text editing. Any text you place in here will be lost. If you need to comment on your tab, please use the "Tab Notes" section located below.