Sound will begin in 5 seconds

Life and Death

01234567891011121314151617181920212223
E
B
G
D
A
E
B
0 1 2 3 4 5 6 7 8 9 10 11 12 13 14 15 16 17 18 19 20 21 22 23
Song Science #1: How Pros Use 6 Chords to Write Hit Songs
(/) Slide Up  (\) Slide Down  (h) Hammer On  (p) Pull Off  (b) Bend (r) Release (v) Vibrato

Stave 1:

E|-----------------------------------------
B|-----------------------------------------
G|-----------------------------------------
D|--2--2--2--2--2--2--2--2/21--21--21--21--
A|--2--2--2--2--2--2--2--------------------
E|--0--0--0--0--0--0--0--------------------

Stave 2:

E|------------------------------------------------------------------------------------
B|------------------------------------------------------------------------------------
G|------------------------------------------------------------------------------------
D|------------------------------------------------------------------------------------
A|----------14------15------14------12--------------14------15------14----------------
E|--12--12------12------12------12------15--12--12------12------12------12--15p0--12--

Stave 3:

E|--------
B|--------
G|--9-----
D|--9--9--
A|--7--9--
E|--------

Stave 4:

E|--------------
B|--------------
G|-----------9--
D|-----------9--
A|-----------x--
E|--------------

Stave 5:

E|-----------
B|-----------
G|--9-----9--
D|--9--9--9--
A|--7--9--x--
E|-----------

Stave 6:

E|-----------------------------------------------------------------
B|-----------------------------------------------------------------
G|--9--x--x--9--x--x--10--9--7--9--7--x--x--5--x--x--7--5--4-------
D|--9--x--x--9--x--x--10--9--7--9--7--x--x--5--x--x--7--5--4-------
A|--7--x--x--7--x--x--8---7--5--7--5--x--x--3--x--x--5--3--2--2/7--
E|-----------------------------------------------------------------

Stave 7:

E|------------------------------------------------------
B|------------------------------------------------------
G|------------------------------------------------------
D|------------------------------------------------------
A|--9--0--0--10--0--0--12--0--0--10--0--0--9--0--10--0--
E|------------------------------------------------------

Stave 8:

E|-----------------------------------------------------------------
B|--------------------------------------------8-----------------8--
G|--7h8h9--7h8h9--7h8h9--7h8h9--7h8h9--7h8h---------------------9--
D|-----------------------------------------------------------------
A|-----------------------------------------------------------------
E|-----------------------------------------------------------------

Stave 9:

E|--------------------------------------------------------------------------------------------------12--
B|--8b10r8--8--8--------------\10--10--10--10--10----10--10--10----10--10--10--10--10--10h12--12b13r----
G|-------0--0--9--9----9--9--9--------------------------------------------------------------------------
D|------------------------------------------------------------------------------------------------------
A|------------------------------------------------------------------------------------------------------
E|------------------------------------------------------------------------------------------------------

http://www.guitartabcreator.com
Guitar Tab Creator is intended to store guitar tab created through the tool. It currently does not support in-line text editing. Any text you place in here will be lost. If you need to comment on your tab, please use the "Tab Notes" section located below.