Sound will begin in 5 seconds

Apocalypse

01234567891011121314151617181920212223
E
B
G
D
A
E
B
0 1 2 3 4 5 6 7 8 9 10 11 12 13 14 15 16 17 18 19 20 21 22 23
Song Science #1: How Pros Use 6 Chords to Write Hit Songs
(/) Slide Up  (\) Slide Down  (h) Hammer On  (p) Pull Off  (b) Bend (r) Release (v) Vibrato

Stave 1:

E|---------------------------------------------------------------------------------------
B|---------------------------------------------------------------------------------------
G|------------------------------------------------------------------------------------7--
D|------------------------------------------------------------------------------------7--
A|--7--7--7--10--10--10--9--9--9--5------------------7--7--7--10--10--10--9--9--9-----5--
E|--0--0--0--0---0---0---0--0--0--0------------------0--0--0--0---0---0---0--0--0--0-----

Stave 2:

E|--------------------------------
B|--------------------------------
G|--------------------------------
D|--2--x--2--x--5--4--------------
A|--2--x--2--x--5--4--------------
E|--0--x--0--x--3--2-----0--------

Stave 3:

E|---------------------------------------------------------
B|---------------------------------------------------------
G|---------------------------------------------------------
D|--2--x--2--x--5--4--2--4----2--x--x--2--x--x--5--5----7--
A|--2--x--2--x--5--4--2--4----2--x--x--2--x--x--5--5----7--
E|--0--x--0--x--3--2--0--2----0--x--x--0--x--x--3--3--3/5--

Stave 4:

E|-----------------------------------------
B|-----------------------------------------
G|--------------------------------------1--
D|--------------------------------------1--
A|--------------------------------------0--
E|-----------------------------------------

Stave 5:

E|---------------------------------------------------------------
B|---------------------------------------------------------------
G|--------------------------2----------------------------2-------
D|-------2-------2-------2--2---------2-------2-------2--2-------
A|-------2-------2-------2--0---------2-------2-------2--0-------
E|--3p0--0--3p0--0--3p0--0-------3p0--0--3p0--0--3p0--0-----3b4--

Stave 6:

E|---------------
B|---------------
G|--2/12--12-----
D|--2-12--12/14--
A|--0------------
E|---------------

http://www.guitartabcreator.com
Guitar Tab Creator is intended to store guitar tab created through the tool. It currently does not support in-line text editing. Any text you place in here will be lost. If you need to comment on your tab, please use the "Tab Notes" section located below.