sod aerials 2 ukoalele

01234567891011121314151617181920212223
E
B
G
D
A
E
B
0 1 2 3 4 5 6 7 8 9 10 11 12 13 14 15 16 17 18 19 20 21 22 23
(/) Slide Up  (\) Slide Down  (h) Hammer On  (p) Pull Off  (b) Bend (r) Release (v) Vibrato

Stave 1:

A|--3--3--3-----------3--3--3-----------
E|--3--3--3-----------3--3--3-----------
C|--3--2--0-----------5--3--2-----------
G|--0--0--0-----------0--0--0-----------

Stave 2:

A|--3--3--3-----3--3--3-----3--3--3--------
E|--3--3--3-----4--3--3-----3--3--3--------
C|--3--5--0-----0--0--5-----3--2--0--------
G|--0--0--0-----0--0--0-----0--0--0--------

Stave 3:

A|--3--1--------------5--1--------------
E|--3--3--3-----------3--3--3-----------
C|--0--0--0-----------0--0--0-----------
G|--0--0--0-----------0--0--0-----------

Stave 4:

A|--3--5--6-----8--6--5-----3--1--3-----
E|--3--3--3-----3--3--3-----3--3--3-----
C|--0--0--0-----0--0--0-----0--0--0-----
G|--0--0--0-----0--0--0-----0--0--0-----

Stave 5:

A|--3--------------------
E|--4--------------------
C|--3--------------------
G|--5--------------------

Stave 6:

A|--3--------8-----3--------6-----
E|--3--------8-----3--------8-----
C|--0--------7-----0--------7-----
G|--0--------------0--------------

Stave 7:

A|--3--------5-----3--------3-----
E|--3--------3-----3--------3-----
C|--0--------5-----0--------3-----
G|--0--------------0--------------

							http://www.guitartabcreator.com
Chords

Instruments
{"strings":[[[3,3,3,"_","_","_",3,3,3,"_","_","_"],[3,3,3,"_","_","_",3,3,3,"_","_","_"],[3,2,0,"_","_","_",5,3,2,"_","_","_"],[0,0,0,"_","_","_",0,0,0,"_","_","_"]],[[3,3,3,"_",3,3,3,"_",3,3,3,"_","_"],[3,3,3,"_",4,3,3,"_",3,3,3,"_","_"],[3,5,0,"_",0,0,5,"_",3,2,0,"_","_"],[0,0,0,"_",0,0,0,"_",0,0,0,"_","_"]],[[3,1,".","_","_","_",5,1,".","_","_","_"],[3,3,3,"_","_","_",3,3,3,"_","_","_"],[0,0,0,"_","_","_",0,0,0,"_","_","_"],[0,0,0,"_","_","_",0,0,0,"_","_","_"]],[[3,5,6,"_",8,6,5,"_",3,1,3,"_"],[3,3,3,"_",3,3,3,"_",3,3,3,"_"],[0,0,0,"_",0,0,0,"_",0,0,0,"_"],[0,0,0,"_",0,0,0,"_",0,0,0,"_"]],[[3,"_","_","_","_","_","_"],[4,"_","_","_","_","_","_"],[3,"_","_","_","_","_","_"],[5,"_","_","_","_","_","_"]],[[3,"_","_",8,"_",3,"_","_",6,"_"],[3,"_","_",8,"_",3,"_","_",8,"_"],[0,"_","_",7,"_",0,"_","_",7,"_"],[0,"_","_",".","_",0,"_","_",".","_"]],[[3,"_","_",5,"_",3,"_","_",3,"_"],[3,"_","_",3,"_",3,"_","_",3,"_"],[0,"_","_",5,"_",0,"_","_",3,"_"],[0,"_","_",".","_",0,"_","_",".","_"]]],"numberofstrings":4,"notes":["A","E","C","G"],"capo":0,"stringnotes":["A4","E4","C3","G3"],"comments":["Stave 1:","Stave 2:","Stave 3:","Stave 4:","Stave 5:","Stave 6:","Stave 7:"],"timing":[["W","W","W","W","W","W","W","W","W","W","W","W"],["W","W","W","W","W","W","W","W","W","W","W","W","W"],["W","W","W","W","W","W","W","W","W","W","W","W"],["W","W","W","W","W","W","W","W","W","W","W","W"],["W","W","W","W","W","W","W"],["W","W","W","W","W","W","W","W","W","W"],["W","W","W","W","W","W","W","W","W","W"]],"timingvisible":false,"tabcounter":10,"stave":6,"totalstaves":7,"instrument":"ukulele","selectedtuning":"ukulele","version":"13"}
Submitted by uKoalele on Thu, 2022-07-14 10:10