aot mahle ukulele by uKoalele

01234567891011121314151617181920212223
E
B
G
D
A
E
B
0 1 2 3 4 5 6 7 8 9 10 11 12 13 14 15 16 17 18 19 20 21 22 23
(/) Slide Up  (\) Slide Down  (h) Hammer On  (p) Pull Off  (b) Bend (r) Release (v) Vibrato

Stave 1:

A|--------------------------0-----------------3--5--
E|-----1--1--3--------3--3-----0--1--3--1--0--------
C|--------------------------------------------------
G|--2-----------------------------------------------

Stave 2:

A|-------------------------0-----------3--1--0--
E|--1p0-----1--3-----3--3-----0--1--3-----------
C|-------0--------------------------------------
G|----------------------------------------------

Stave 3:

A|-----------------------0-----------------------
E|--1--3-----3-----3--3-----6--5--3--1--0--------
C|--------0--------------------------------2--0--
G|-----------------------------------------------

Stave 4:

A|--------------------------------------------
E|--------------------3-----------------------
C|--2--4--5--4--2--------0--4--2-----0--2-----
G|--------------------------------------------

Stave 5:

A|--
E|--
C|--
G|--

							http://www.guitartabcreator.com
Chords

Instruments
{"strings":[[[".",".",".",".","_","_",".",".",0,".",".",".",".",".",3,5],[".",1,1,3,"_","_",3,3,".",0,1,3,1,0,".","."],[".",".",".",".","_","_",".",".",".",".",".",".",".",".",".","."],[2,".",".",".","_","_",".",".",".",".",".",".",".",".",".","."]],[[".",".",".",".",".",".","_",".",".",0,".",".",".",3,1,0],[1,"p",0,".",1,3,"_",3,3,".",0,1,3,".",".","."],[".",".",".",0,".",".","_",".",".",".",".",".",".",".",".","."],[".",".",".",".",".",".","_",".",".",".",".",".",".",".",".","."]],[[".",".",".",".","_",".",".",0,".",".",".",".",".",".","."],[1,3,".",3,"_",3,3,".",6,5,3,1,0,".","."],[".",".",0,".","_",".",".",".",".",".",".",".",".",2,0],[".",".",".",".","_",".",".",".",".",".",".",".",".",".","."]],[[".",".",".",".",".","_",".",".",".",".","_",".",".","_"],[".",".",".",".",".","_",3,".",".",".","_",".",".","_"],[2,4,5,4,2,"_",".",0,4,2,"_",0,2,"_"],[".",".",".",".",".","_",".",".",".",".","_",".",".","_"]],[[],[],[],[]]],"numberofstrings":4,"notes":["A","E","C","G"],"capo":0,"stringnotes":["A4","E4","C3","G3"],"comments":["Stave 1:","Stave 2:","Stave 3:","Stave 4:","Stave 5:"],"timing":[["W","W","W","W","W","W","W","W","W","W","W","W","W","W","W","W"],["W",null,"W","W","W","W","W","W","W","W","W","W","W","W","W","W"],["W","W","W","W","W","W","W","W","W","W","W","W","W","W","W"],["W","W","W","W","W","W","W","W","W","W","W","W","W","W"],[]],"timingvisible":false,"tabcounter":0,"stave":4,"totalstaves":5,"instrument":"ukulele","selectedtuning":"ukulele","version":"13"}
Submitted by uKoalele on Fri, 2022-07-08 06:58