bridge

Chords

01234567891011121314151617181920212223
E
B
G
D
A
E
B
0 1 2 3 4 5 6 7 8 9 10 11 12 13 14 15 16 17 18 19 20 21 22 23
(/) Slide Up  (\) Slide Down  (h) Hammer On  (p) Pull Off  (b) Bend (r) Release (v) Vibrato


E|--3--5--7--7h8p7--10--10--12--13--12--13--12--15--13--12--10--10--12--13--8---10--8--
B|--------8---------12--------------13----------------------12--------------10---------
G|--------7---------10--------------12-------------------------------------------------
D|-------------------------------------------------------------------------------------
A|-------------------------------------------------------------------------------------
E|-------------------------------------------------------------------------------------



E|--7--8p7--5--3--2--0-----------3--3h5p3--2--0--
B|--8-------7--------0-----------0---------3--2--
G|-------------------0-----------0---------2--2--
D|-------------------2-----------0---------0--2--
A|-------------------2-----------2------------0--
E|-------------------0--0--2--3--3---------------



E|--5--
B|--0--
G|--0--
D|--2--
A|--3--
E|-----
							http://www.guitartabcreator.com
[["."],["3"],["2"],["0"],["0"],["5"]]

Member for

8 years 3 months
Submitted by tylerono on Wed, 2012-03-21 12:53