Sound will begin in 5 seconds

Love Sick Solo

01234567891011121314151617181920212223
E
B
G
D
A
E
B
0 1 2 3 4 5 6 7 8 9 10 11 12 13 14 15 16 17 18 19 20 21 22 23
Song Science #1: How Pros Use 6 Chords to Write Hit Songs
(/) Slide Up  (\) Slide Down  (h) Hammer On  (p) Pull Off  (b) Bend (r) Release (v) Vibrato

Stave 1:

E|----------------------------------------9--12--9--12--9--12b12--9-----------------------------------
B|---------------------------------9--12-----------------------------12--9--7-------------------------
G|-----------------------9--11b11----------------------------------------------9b9--6-----------------
D|----------------9--11----------------------------------------------------------------9--6-----------
A|---------9--11-----------------------------------------------------------------------------9--7--4--
E|--9--12---------------------------------------------------------------------------------------------

Stave 2:

E|---------------------------------------9--12--12--9--12b12--9--12b12--9--17--16--14--16--12----12--12--
B|--------------------------------9--12------------------------------------------------------------------
G|-------------------------9--11-------------------------------------------------------------------------
D|------------------9--11--------------------------------------------------------------------------------
A|--------7--9--11---------------------------------------------------------------------------------------
E|--7--9-------------------------------------------------------------------------------------------------

Stave 3:

E|--9--12--9--7---------------------------------------------------------------------------------------
B|---------------9--7--------------------------------------------------------------9--12--14--12--14--
G|---------------------9--6-------------------------------------------------9--11---------------------
D|---------------------------9--6-----------------------------9--11--9--------------------------------
A|---------------------------------9h7-----------------9--11------------11----------------------------
E|--------------------------------------9h7/4/7/9--11-------------------------------------------------

Stave 4:

E|------------------
B|--17--14--19--17--
G|------------------
D|------------------
A|------------------
E|------------------

http://www.guitartabcreator.com
Guitar Tab Creator is intended to store guitar tab created through the tool. It currently does not support in-line text editing. Any text you place in here will be lost. If you need to comment on your tab, please use the "Tab Notes" section located below.