Sound will begin in 5 seconds

Chrono Trigger Corridors of Time

01234567891011121314151617181920212223
E
B
G
D
A
E
B
0 1 2 3 4 5 6 7 8 9 10 11 12 13 14 15 16 17 18 19 20 21 22 23
Song Science #1: How Pros Use 6 Chords to Write Hit Songs
(/) Slide Up  (\) Slide Down  (h) Hammer On  (p) Pull Off  (b) Bend (r) Release (v) Vibrato

Capo Fret 4

Stave 1:

E|---------------------------------|-------------------------------------|---
B|---------3-------1-------3-------|---------3-------1-------3-----3-----|---
G|-----0-2-----0-2-----0-2-----0-2-|-----0-2-----0-2-----0-2-----0---2---|---
D|---0-------0-------0-------0-----|---0-------0-------0-------0-------0-|---
A|---------------------------------|-------------------------------------|---
D|-0-------------------------------|-0-----------------------------------|-0-

Stave 2:

E|-----------------------------------------|---------------------0-------------|---
B|-----------3---------1---------3---------|-----------3---------------3-3---3-|---
G|-----0---2-----0---2-----0---2-----0---2-|-----0---2-----0---2-----0-----2---|-2-
D|---0---------0---------0---------0-------|---0---------0---------0-----------|---
A|-----------------------------------------|-0-------0-0-------0-0-----0-0-----|---
D|-0-------0-0-------0-0-------0-0-------0-|-----------------------------------|---

Stave 3:

E|--0---0---------------------------1---3---1-0-|-----0-----------------------------|---
B|----------3-3---------1-------1-3-------------|-3------1-1--------0---------1-----|---
G|------0---2-----0---2-----0-----------0---2---|-2---0--2-----0--2-----0---2-----0-|-2-
D|----0---------0---------0-----------0---------|---0--------0--------0---------0---|---
A|----------------------------------------------|-0------0-0------0-0-------0-0-----|---
D|--0-------0-0-------0-0-------0---0-------0---|-----------------------------------|---

Stave 4:

E|--0---0---------------------------1---3---1-3---5---5-------------------3-7---7---5-
B|----------3-3---------1-------1-3-----3-----3---5---5-----------1-------------------
G|------0---2-----0---2-----0-------------------------------0---2-----0---------0-----
D|----0---------0---------0-----------0---------0---------0---------0---------0-------
A|--------------------------------------------0---------0---------0-------0-0-------0-
D|--0-------0-0-------0-0-------0---0-------0-----------------------------------------

Stave 5:

E|--1--------------------------1-----3---5-3---5---0-----------------------------------
B|-----------3---------1---------3---3-----3---5---1---3---1-1-------1-1-1-3---1-------
G|------0--2-----0---2-----0---------0-----------------2---2-2---0-----------2-----2---
D|----0--------0---------0---------0---------0-------0---------0-----------------------
A|-----------------------------------------0-------0-------0-0-------0-0---------------
D|--0------0-0-------0-0-------0-0-------0---------------------------------------------

Stave 6:

E|----------------0---1-0---0-----0-1-0---0-------------0---------------
B|--3-------1-3-------------1---3-----1-1-3---3-------1---3---3---3-----
G|------3---------0-------0---------0-2---2-2---------2-------2-2---2---
D|----0---------0-------------------------0---------------0---0-------0-
A|----------------------3-------3-3---------------0-0-0-------0---------
D|--0-------0-0-------0-------------------------------------------------

Stave 7:

E|------------------3-------7-------0-------------------------------------
B|----------------------------7---7---1---1---1---0-6-------5---1-----3---
G|----2---2---2---2---0---0---6---6---2---2---2---0-7-----------0-----2-2-
D|----0---0---0---0---0---0---------------------------7---7---0---0-----0-
A|----------------------------------0-------0-------0-------0-------------
D|--0-------0-------0-------0-----------------------------------------0---

Stave 8:

E|-----------------------------3-0---0-1-------0---------------------
B|--------------------1------------------3---3---1---1-1-3---1-----3-
G|--2---2---2-0-0---0----0---0---2---2---2---2---2---2-0-----2-----2-
D|--0---0---0---0---0----0---0-----------------------------0---0-----
A|-----------------------------0-----0-0-----0-0-----0-0-------------
D|--0-0-----0-0-----0-0--------------------------------------------0-

Stave 9:

E|------------------------------8---------0-----------------0---1---0---------
B|----------3---------8-------------------0-1---1---1---1-3-----------1-------
G|----0---2-----0---2-----0---------0-------2---2---2---------0-------2-2-----
D|--0---------0---------0-----7---0-----7-----------------------------------0-
A|----------------------------------------0-----0-0-----0---0-------0-0-------
D|--------0-0-------0-0-------0-0-------0-------------------------------------

Stave 10:

E|----------------0---1-0---------0-1-0---0---------------0-------------------
B|--3-------1-3---------1---1---3---3-1-1-3---3-------1-----3---3---3---------
G|------3-------3---------0-------------0-2-2---------2---------2-2---2-------
D|----0-----------------------------------0-----------------0---0-------0-----
A|----------------------3-------3-3-----3---------0-0-----0-----0---------0---
D|--0-------0-0-------0-----------------------------------------------------0-

Stave 11:

E|--
B|--
G|--
D|--
A|--
D|--

Stave 12:

E|--
B|--
G|--
D|--
A|--
D|--

Stave 13:

E|--
B|--
G|--
D|--
A|--
D|--

Stave 14:

E|--
B|--
G|--
D|--
A|--
D|--

Stave 15:

E|--
B|--
G|--
D|--
A|--
D|--

Stave 16:

E|--
B|--
G|--
D|--
A|--
D|--

Stave 17:

E|--
B|--
G|--
D|--
A|--
D|--

Stave 18:

E|--
B|--
G|--
D|--
A|--
D|--

Stave 19:

E|--
B|--
G|--
D|--
A|--
D|--

Stave 20:

E|-
B|-
G|-
D|-
A|-
D|-

http://www.guitartabcreator.com
Guitar Tab Creator is intended to store guitar tab created through the tool. It currently does not support in-line text editing. Any text you place in here will be lost. If you need to comment on your tab, please use the "Tab Notes" section located below.