Sound will begin in 5 seconds

Extinguisher

Chords
01234567891011121314151617181920212223
E
B
G
D
A
E
B
0 1 2 3 4 5 6 7 8 9 10 11 12 13 14 15 16 17 18 19 20 21 22 23
Song Science #1: How Pros Use 6 Chords to Write Hit Songs
(/) Slide Up  (\) Slide Down  (h) Hammer On  (p) Pull Off  (b) Bend (r) Release (v) Vibrato

Stave 1:

E|--------------------------------------------------------------------------------------------------------
B|--------------------------------------------------------------------------------------------------------
G|-----------5-----------5--7-----------5-----------5--7--6-----------------------------5-----------------
D|-----5--7--------5--7-----------5--7--------5--7-----6--5-----------5--7--------5--7--------------5--7--
A|--0-----------0--------------0-----------0-----------7--6--0--0--0--------0--0-----------0--0--0--------
E|--------------------------------------------------------------------------------------------------------

Stave 2:

E|-----------------------------------------------------------------------------------------------------
B|-----------------------------------------------------------------------------------------------------
G|--------------------------------------5-----------------------------5-----------------------------5--
D|--------7-----------5--7--------5--7--------------5--7--------5--7--------------5--7--------5--7-----
A|--0--0-----0--0--0--------0--0-----------0--0--0--------0--0-----------0--0--0--------0--0-----------
E|-----------------------------------------------------------------------------------------------------

Stave 3:

E|-----------------------------------------------------------------------------------------------------
B|-----------------------------------------------------------------------------------------6-----------
G|-----------------------------------------------------------------------5--7--------5--7--------------
D|-----------------------------5-----------------------------5--0--0--0--------0--0-----------0--0--0--
A|-----------5--7--------5--7--------------5--7--------5--7--------------------------------------------
E|--0--0--0--------0--0-----------0--0--0--------0--0--------------------------------------------------

Stave 4:

E|--------------------------------------------------------------------------------------------
B|-----------------------------6-----------------------6--------3--------------3--3--3--3--3--
G|-----------5--7--------5--7--------------5--7-----------2--2-----------3--2-----------------
D|--0--0--0--------0--0-----------0--0--0--------0--0-----2--2-----2--2-----2-----------------
A|--------------------------------------------------------0--0-----2--2-----0-----------------
E|-----------------------------------------------------------------0--0-----------------------

Stave 5:

E|-----------------------------------------------------------------------------------------------
B|-----------------------------------------------------------------------------------------------
G|-----------3--3--------------5--------------5--5--7--5-----------------5--------------5--7--6--
D|--2--2--2-----------5--6--7--------5--6--7--------------7-----5--6--7--------5--6--7-----6--5--
A|--2--2--2--------0--------------0--------------------------0--------------0--------------7--6--
E|--0--0--0--------------------------------------------------------------------------------------

Stave 6:

E|--------------------------------------------------------------------------------------------------------
B|--------------------------------------------------------------------------------------------6-----------
G|--------------------------------------------------------------------------7--6-----5--6--7--------5--6--
D|--------------5--------------5--5--7--5-----------------5--------------5--6--5--0--------------0--------
A|-----5--6--7--------5--6--7--------------7-----5--6--7--------5--6--7-----7--6--------------------------
E|--0--------------0--------------------------0--------------0--------------------------------------------

Stave 7:

E|-----------------------------------------------------------------------------------------
B|-----6--6--8--6-----------------6--------------6-----------------------------------------
G|--7--------------7-----5--6--7--------5--6--7-----7--6-----------------------------------
D|--------------------0--------------0--------------6--5-----------------------------------
A|--------------------------------------------------7--6--0--0--0--3--0--0--0--3--0--3--0--
E|-----------------------------------------------------------------------------------------

Stave 8:

E|--------------------------------------------------------0--0--0--0------------------------------
B|--------------------------------------------------------0--0--0--0------------------------------
G|--------------------------------------------------------0--0--0--0------------------------------
D|--------------------------------------------------------0--0--0--0------------------------------
A|--------------------------------------------------------0--0--0--0--3--5--5--5--3--5--3--0------
E|--5--5--5--5--3--3--0--0--0--3--5--5--5--3--5--3--0--0--0--0--0--0--------------------------15--

Stave 9:

E|-----------------------------0--0--0--0-----------------------------------------------------------
B|-----------------------------0--0--0--0-----------------------------------------------5--------5--
G|-----------------------------0--0--0--0-----------------------------7--7--7--7--2--2--7--------7--
D|-----------------------------0--0--0--0-----------------------------6--6--6--6--2--2-----2--2-----
A|-----------------------------0--0--0--0--3--5--5--5--3--5--3--0--0--7--7--7--7--0--0-----2--2-----
E|--3--5--5--5--3--5--3--0--0--0--0--0--0--------------------------------------------------0--0-----

Stave 10:

E|--------------------------
B|--------5--------5--5-----
G|--2--2--7--------7--7--2--
D|--2--2-----2--2--------2--
A|--0--0-----2--2--------0--
E|-----------0--0-----------

http://www.guitartabcreator.com
Guitar Tab Creator is intended to store guitar tab created through the tool. It currently does not support in-line text editing. Any text you place in here will be lost. If you need to comment on your tab, please use the "Tab Notes" section located below.