Sound will begin in 5 seconds

John ME - Love is my drug (acoustic

01234567891011121314151617181920212223
E
B
G
D
A
E
B
0 1 2 3 4 5 6 7 8 9 10 11 12 13 14 15 16 17 18 19 20 21 22 23
Song Science #1: How Pros Use 6 Chords to Write Hit Songs
(/) Slide Up  (\) Slide Down  (h) Hammer On  (p) Pull Off  (b) Bend (r) Release (v) Vibrato

Stave 1:

E|-------------------------------------------------------------------------------------------3p0--
B|--------0--------1--------3--------1--------1p0--------0--------1--------3--------1-------------
G|-----2--------2--------2--------2--------2----------2--------2--------2--------2--------2-------
D|------------------------------------------------------------------------------------------------
A|--0--------0--------0--------0--------0----------0--------0--------0--------0--------0----------
E|------------------------------------------------------------------------------------------------

Stave 2:

E|-------------------------------------------------------------0--------------3--------3--------
B|--------0--------1--------------1--------0----------------------1-----------------------2-----
G|-----2--------2--------2-----2--------2-------------0-----0--------0-----0--------0--------0--
D|-----------------------------------------------0h2--------------------------------------------
A|--0--------0--------0-----------------------3----------3--------------2--------2--------------
E|--------------------------1--------1----------------------------------------------------------

Stave 3:

E|-------------------------------------------------------------------0--------------3--------3--------
B|--------1--------0--------------0--------1----------------------------1-----------------------2-----
G|-----2--------2--------2-----2--------2--------2----------0-----0--------0-----0--------0--------0--
D|-----------------------------------------------------0h2--------------------------------------------
A|--0--------0--------0-----------------------------3----------3--------------2--------2--------------
E|--------------------------1--------1--------1-------------------------------------------------------

http://www.guitartabcreator.com
Guitar Tab Creator is intended to store guitar tab created through the tool. It currently does not support in-line text editing. Any text you place in here will be lost. If you need to comment on your tab, please use the "Tab Notes" section located below.