Sound will begin in 5 seconds

Yosuga no Sora - Kioku

01234567891011121314151617181920212223
E
B
G
D
A
E
B
0 1 2 3 4 5 6 7 8 9 10 11 12 13 14 15 16 17 18 19 20 21 22 23
Song Science #1: How Pros Use 6 Chords to Write Hit Songs
(/) Slide Up  (\) Slide Down  (h) Hammer On  (p) Pull Off  (b) Bend (r) Release (v) Vibrato

Stave 1:

E|--14----------------------|--19--|--12----------------------|--17--|--14----------------------|--12--|--12----------------------|-----
B|----------17------15------|--17--|----------15------14------|--17--|----------17------15------|--12--|----------15------14------|--7--
G|------16------16------16--|--16--|------14------14------14--|--14--|------16------16------16--|--14--|------14------14------14--|--9--
D|--------------------------|------|--------------------------|------|--------------------------|------|--------------------------|--9--
A|--------------------------|------|--------------------------|------|--------------------------|------|--------------------------|-----
E|--------------------------|------|--------------------------|------|--------------------------|------|--------------------------|-----

Stave 2:

E|-----------|-----------|-----------|--------
B|-----------|-----------|-----------|--5--6--
G|-----------|--------6--|-----6--7--|--------
D|--5--7--9--|--7--9-----|--9--------|--------
A|-----------|-----------|-----------|--------
E|-----------|-----------|-----------|--------

Stave 3:

E|------------------------------------------------5--7--5--|--------------5-------------|--
B|---------------7-----------------------------------------|---------5/7----------------|--
G|------------------6----7--6------------6--7--9-----------|-----------------6----------|--
D|--9--7--7/9------------------7--7/9----------------------|--7/9---------------7--7/9--|--
A|---------------------------------------------------------|----------------------------|--
E|---------------------------------------------------------|----------------------------|--

Stave 4:

E|------------------------------------------------5--7--5--|--------------5-------------|-------------
B|--7------------7-----------------------------5-----------|---------5/7----------------|-------------
G|-----6------------6----7--6------------6--7--------------|-----------------6----------|-----6-------
D|--------7/9------------------7--7/9----------------------|--7/9---------------7--7/9--|--7-----7/9--
A|---------------------------------------------------------|----------------------------|-------------
E|---------------------------------------------------------|----------------------------|-------------

Stave 5:

E|-------------------------------------------------|----------------------------------------------------------9------
B|------10--12----10--12--10-----------10----------|----------------------------------------------10--11--12-----12--
G|--11--------------------------9--11--------------|------9--11----11--9--11--9--------9--11--12---------------------
D|-----------------------------------------11--12--|--12---------------------------12--------------------------------
A|-------------------------------------------------|-----------------------------------------------------------------
E|-------------------------------------------------|-----------------------------------------------------------------

Stave 6:

E|---------------------------9--10--12--14--|--12--------------------------------------------------|--14----12-------------------------
B|--10--12--10-----------10-----------------|------15--14----12--14--15----15--14--12--11--12--14--|------------15--14----------10/12--
G|----------------9--11---------------------|------------------------------------------------------|--------------------14--11---------
D|------------------------------------------|------------------------------------------------------|-----------------------------------
A|------------------------------------------|------------------------------------------------------|-----------------------------------
E|------------------------------------------|------------------------------------------------------|-----------------------------------

http://www.guitartabcreator.com
Guitar Tab Creator is intended to store guitar tab created through the tool. It currently does not support in-line text editing. Any text you place in here will be lost. If you need to comment on your tab, please use the "Tab Notes" section located below.