Sound will begin in 5 seconds

I'd Rather Be Blind

01234567891011121314151617181920212223
E
B
G
D
A
E
B
0 1 2 3 4 5 6 7 8 9 10 11 12 13 14 15 16 17 18 19 20 21 22 23
Song Science #1: How Pros Use 6 Chords to Write Hit Songs
(/) Slide Up  (\) Slide Down  (h) Hammer On  (p) Pull Off  (b) Bend (r) Release (v) Vibrato

Stave 1:

E|-------------------------------------0--------------------------------------------
B|----------------2-----------------2-----2-----------3-----------------3-----------
G|-------------2-----2-----------2-----------4-----4-----4-----------4-----4-----4--
D|----------2-----------2-----2-----------------4-----------4-----4-----------4-----
A|-------0--------0--------0--------0--0--0--2--------2--------2--------2-----2--2--
E|--0h2-----------------------------------------------------------------------------

Stave 2:

E|--------------------------------------------------------------------------
B|--------3-----------------3--------------2--------------------------------
G|-----4-----4-----------4-----4--2-----2-----2-----------2-----4--------2--
D|--4-----------4-----4-----4--------2-----------2-----2-----4-----4--2-----
A|--------1--------2--------2-----0--------0--------0-----------------0--0--
E|--------------------------0--0-----------------------------0--0--0--------

Stave 3:

E|--------------------------------------------------------------------------
B|--------2-----------------2-----------------3-----------------3-----------
G|-----2-----2-----------2-----2-----4-----4-----4-----------4-----4--4-----
D|--2-----------2-----2-----------2-----4--------0--4-----4-----------4--4--
A|--------0--------0--------0--------2--------2--------2--------2--2--------
E|-----------------------------------------------------------------------2--

Stave 4:

E|-----------------------------------------------------------------------------
B|--------3-----------------3-----------------2-----------------------2-----2--
G|-----4-----4-----------4-----4-----2-----2-----2-----------2-----2-----2-----
D|--4-----------4-----4-----------4-----2-----------2-----2-----2--------------
A|--------2--------2--------2--------0--------0--------0-----------0--0--0--0--
E|--------------------------------------------------------------0--------------

Stave 5:

E|-----------------------------------------------------------------------------
B|--------2-----------------2-----------------3--------------------3-----------
G|-----2-----2-----------2-----2-----4-----4-----4-----------4--------4--4-----
D|--2-----------2-----2-----------2-----4-----------4-----4--------------4--4--
A|--------0--------0--------0--------2--------2--------2--------1--2--2--------
E|--------------------------------------------------------------------------2--

Stave 6:

E|--------------------------------------------------------------------------
B|--------3-----------------3-----------------2--------------------------2--
G|-----4-----4-----------4-----4-----2-----2-----2-----------2-----2--------
D|--4-----------4-----4-----------4-----2-----------2-----2-----2-----2-----
A|--------2--------2--------2--------0--------0--------0-----------0--------
E|--------------------------------------------------------------0-----0--0--

Stave 7:

E|--------------------
B|-----------2-----2--
G|--------2-----2-----
D|-----2--------------
A|--------0--0--0--0--
E|-----0--------------

Stave 8:

E|--
B|--
G|--
D|--
A|--
E|--

http://www.guitartabcreator.com
Guitar Tab Creator is intended to store guitar tab created through the tool. It currently does not support in-line text editing. Any text you place in here will be lost. If you need to comment on your tab, please use the "Tab Notes" section located below.