Sound will begin in 5 seconds

LTA - Extra! Extra! Read All About It

01234567891011121314151617181920212223
E
B
G
D
A
E
B
0 1 2 3 4 5 6 7 8 9 10 11 12 13 14 15 16 17 18 19 20 21 22 23
Song Science #1: How Pros Use 6 Chords to Write Hit Songs
(/) Slide Up  (\) Slide Down  (h) Hammer On  (p) Pull Off  (b) Bend (r) Release (v) Vibrato

Stave 1:

E|-----------
B|-----------
G|-----------
D|--4--0--5--
A|--2--0--3--
E|--2--0-----

Stave 2:

E|-----0-----0------0-----0-----0-----0--------------------
B|-----0-----0------0-----0-----0-----0--------------------
G|---------------------------------------------------------
D|--4-----7-----12-----9-----4-----7-----12--------4/7--4--
A|--2-----5-----10-----7-----2-----5-----10--0--2----------
E|--2-----5-----10-----7-----2-----5-----10----------------

Stave 3:

E|--0--0--0---0--0--0--0---
B|--0--0--0---0--0--0--0---
G|--0--0--0---0--0--0--0---
D|--4--7--12--9--4--7--12--
A|--2--5--10--7--2--5--10--
E|--2--5--10--7--2--5--10--

Stave 4:

E|----------------------------------------------
B|----------------------------------------------
G|----------------------------------------------
D|----------------------------------------------
A|--12--14--14--14--12--14--14--14--17--17--17--
E|----------------------------------------------

Stave 5:

E|----------------------------------------------
B|----------------------------------------------
G|----------------------------------------------
D|----------------------------------------------
A|--12--14--14--14--12--17--15--12--14--12--12--
E|----------------------------------------------

Stave 6:

E|----------------------------------------------------------------------
B|----------------------------------------------------------------------
G|----------------------------------------------------------------------
D|----------------------------------------------------------------------
A|--12--14--14--14--12--14--14--14--17--17--17--12--12--12--12--12--12--
E|----------------------------------------------------------------------

Stave 7:

E|-----------
B|-----------
G|-----------
D|--7--7-----
A|--7--5--9--
E|--7-----8--

Stave 8:

E|---------------------------------
B|---------------------------------
G|---------------------------------
D|--10--5--4-----------------------
A|--9---7--2-----------------------
E|--10--7--2--2--2--4--4--5--5--5--

Stave 9:

E|---------------------------------
B|---------------------------------
G|---------------------------------
D|------5--4-----------------------
A|--9---7--2-----------------------
E|--10--7--2--2--2--4--4--5--5--5--

Stave 10:

E|--------------
B|--------------
G|--0--2--4--7--
D|--------------
A|--------------
E|--------------

Stave 11:

E|-----------
B|-----------
G|-----------
D|--2--x--5--
A|--2--x--3--
E|--2--x-----

Stave 12:

E|--0--0--0---0--0--0--0------
B|--0--0--0---0--0--0--0------
G|--0--0--0---0--0--0--0------
D|--4--7--12--9--4--7--12--7--
A|--2--5--10--7--2--5--10--7--
E|--2--5--10--7--2--5--10--7--

http://www.guitartabcreator.com
Guitar Tab Creator is intended to store guitar tab created through the tool. It currently does not support in-line text editing. Any text you place in here will be lost. If you need to comment on your tab, please use the "Tab Notes" section located below.