Sound will begin in 5 seconds

Cannon in D Major

01234567891011121314151617181920212223
E
B
G
D
A
E
B
0 1 2 3 4 5 6 7 8 9 10 11 12 13 14 15 16 17 18 19 20 21 22 23
Song Science #1: How Pros Use 6 Chords to Write Hit Songs
(/) Slide Up  (\) Slide Down  (h) Hammer On  (p) Pull Off  (b) Bend (r) Release (v) Vibrato

Stave 1:

E|-14-12-10-9-|-7-5-7-9-|-10-9-7-5-|-3-2-3---|---2-5-3-2---2---|-
B|------------|---------|----------|-------5-|-3---------3---5-|-
G|------------|---------|----------|---------|-----------------|-
D|------------|---------|----------|---------|-----------------|-
A|------------|---------|----------|---------|-----------------|-
E|------------|---------|----------|---------|-----------------|-

Stave 2:

E|--------5-3-7-5-3-|-2---0-9-10-14-17----|----------------10-10-12-10-12-10-9-|-
B|--3---3-----------|---3-----------------|------------------------------------|-
G|----4-------------|------------------14-|-16-12-14-11------------------------|-
D|------------------|---------------------|-------------12---------------------|-
A|------------------|---------------------|------------------------------------|-
E|------------------|---------------------|------------------------------------|-

Stave 3:

E|--10-9-10------------------10-9----------14-17-|-15-14-12-15-14-12-10-9-7----------------|-
B|----------------10--------------12----15-------|--------------------------10-8-7---8-7---|-
G|-------------------9-11------------14----------|---------------------------------9-----9-|-
D|----------12-11---------12---------------------|-----------------------------------------|-
A|-----------------------------------------------|-----------------------------------------|-
E|-----------------------------------------------|-----------------------------------------|-

Stave 4:

E|---------------------7---------------|-----7-9-10-9-7----------7----7------|-
B|-----7-8-10---10-8-7---10-8-10-8-7---|----------------10-8-7-----10---10-8-|-
G|-7-9--------9----------------------9-|-7---------------------9-------------|-
D|-------------------------------------|---9---------------------------------|-
A|-------------------------------------|-------------------------------------|-
E|-------------------------------------|-------------------------------------|-

Stave 5:

E|----14-12----14-|-19-17-19-21-|-b21-------------|----------15----17-|-
B|--7-------15----|-------------|--------------15-|-15-15-15----17----|-
G|----------------|-------------|-----19-18-16----|-------------------|-
D|----------------|-------------|-----------------|-------------------|-
A|----------------|-------------|-----------------|-------------------|-
E|----------------|-------------|-----------------|-------------------|-

Stave 6:

E|--17-14-15-17-14-15-17----------------14-15-14-------14-------------------------------|-
B|-----------------------------14-15-17----------15-17----------------------------------|-
G|-----------------------14-16----------------------------------14-16-14----14-------14-|-
D|--------------------------------------------------------16-17----------17----16-17----|-
A|--------------------------------------------------------------------------------------|-
E|--------------------------------------------------------------------------------------|-

Stave 7:

E|-----------------------------------------------------------------------------14-15-17-|-
B|--------------------------------------------------------14-15-------14-15-17----------|-
G|-----16-14----------------------------14-16----16-14-16-------14-16-------------------|-
D|--17-------17-16-14-16-14----14-16-17-------17----------------------------------------|-
A|--------------------------17----------------------------------------------------------|-
E|--------------------------------------------------------------------------------------|-

Stave 8:

E|--14-------14-------------------14------------------------------------10-9-10-|-
B|-----15-17----17-15-17-14-15-17----17-15-14-15----14-15-----7-8-7---7---------|-
G|-----------------------------------------------16-------7-9-------9-----------|-
D|------------------------------------------------------------------------------|-
A|------------------------------------------------------------------------------|-
E|------------------------------------------------------------------------------|-

Stave 9:

E|--7-10-9-7------------------7-9-10-7-10-9-10-9-7-9-10-12-10-9-10----9-|-
B|-----------10-8-10-8-7-8-10--------------------------------------12---|-
G|----------------------------------------------------------------------|-
D|----------------------------------------------------------------------|-
A|----------------------------------------------------------------------|-
E|----------------------------------------------------------------------|-

Stave 10:

E|--10-9-7-10-|---------|------------|----------12-|-
B|------------|---------|-10-10-7-10-|-8-7-8-10----|-
G|------------|-7-7-7-9-|------------|-------------|-
D|------------|---------|------------|-------------|-
A|------------|---------|------------|-------------|-
E|------------|---------|------------|-------------|-

Stave 11:

E|--
B|--
G|--
D|--
A|--
E|--

Stave 12:

E|--
B|--
G|--
D|--
A|--
E|--

Stave 13:

E|--
B|--
G|--
D|--
A|--
E|--

Stave 14:

E|--
B|--
G|--
D|--
A|--
E|--

http://www.guitartabcreator.com
Guitar Tab Creator is intended to store guitar tab created through the tool. It currently does not support in-line text editing. Any text you place in here will be lost. If you need to comment on your tab, please use the "Tab Notes" section located below.