Sound will begin in 5 seconds

Last Train to Clarksville: The Psychedelic Side of Clarksville

01234567891011121314151617181920212223
E
B
G
D
A
E
B
0 1 2 3 4 5 6 7 8 9 10 11 12 13 14 15 16 17 18 19 20 21 22 23
Song Science #1: How Pros Use 6 Chords to Write Hit Songs
(/) Slide Up  (\) Slide Down  (h) Hammer On  (p) Pull Off  (b) Bend (r) Release (v) Vibrato

Stave 1:

E|--------------------------|-------------------------|--|-----------3--------3-----|--|--
B|--------3-----------3-----|----------8--------8-----|--|--------3--------------3--|--|--
G|-----4-----4-----4-----4--|-------5--------5-----5--|--|-----4-----------4--------|--|--
D|--5-----------5-----------|--5/7--------7-----------|--|--5-----------5-----------|--|--
A|--------------------------|-------------------------|--|--------------------------|--|--
E|--------------------------|-------------------------|--|--------------------------|--|--

Stave 2:

E|-----------5--------5-----|-----------7--------7-----|-------------8----------8------|--
B|--------6--------6-----6--|--------8--------8-----8--|---------10---------10-----10--|--
G|--0--5--------5-----------|--0--7--------7-----------|--0--10---------10-------------|--
D|--------------------------|--------------------------|-------------------------------|--
A|--------------------------|--------------------------|-------------------------------|--
E|--------------------------|--------------------------|-------------------------------|--

Stave 3:

E|-------------10----------10------|-------------8----------8------|-----------7--------7-----|--
B|---------12----------12------12--|---------10---------10-----10--|--------8--------8-----8--|--
G|--0--12----------12--------------|--0--10---------10-------------|--0--7--------7-----------|--
D|---------------------------------|-------------------------------|--------------------------|--
A|---------------------------------|-------------------------------|--------------------------|--
E|---------------------------------|-------------------------------|--------------------------|--

Stave 4:

E|-----------5--------5-----|-----------7--------7-----|-------------8----------8------|--
B|--------6--------6-----6--|--------8--------8-----8--|---------10---------10-----10--|--
G|--0--5--------5-----------|--0--7--------7-----------|--0--10---------10-------------|--
D|--------------------------|--------------------------|-------------------------------|--
A|--------------------------|--------------------------|-------------------------------|--
E|--------------------------|--------------------------|-------------------------------|--

Stave 5:

E|-------------10----------10------|-------------12----------12------|--
B|---------12----------12------12--|---------10----------10------10--|--
G|--0--12----------12--------------|--0--10----------10--------------|--
D|---------------------------------|---------------------------------|--
A|---------------------------------|---------------------------------|--
E|---------------------------------|---------------------------------|--

Stave 6:

E|-------------10----------10------|--8---|--10------10------10------10--|--
B|---------12----------12------12--|--10--|------12------12------12------|--
G|--0--12----------12--------------|--10--|------------------------------|--
D|---------------------------------|------|------------------------------|--
A|---------------------------------|------|------------------------------|--
E|---------------------------------|------|------------------------------|--

http://www.guitartabcreator.com
Guitar Tab Creator is intended to store guitar tab created through the tool. It currently does not support in-line text editing. Any text you place in here will be lost. If you need to comment on your tab, please use the "Tab Notes" section located below.