Sound will begin in 5 seconds

The Clap by Steve Howe

01234567891011121314151617181920212223
E
B
G
D
A
E
B
0 1 2 3 4 5 6 7 8 9 10 11 12 13 14 15 16 17 18 19 20 21 22 23
Song Science #1: How Pros Use 6 Chords to Write Hit Songs
(/) Slide Up  (\) Slide Down  (h) Hammer On  (p) Pull Off  (b) Bend (r) Release (v) Vibrato

Stave 1:

E|----10---|--------|-------|-------|-----------|---2---2---|-
B|----7----|----8---|---7---|---5---|---3---3---|---3---3---|-
G|-------7-|----7---|---7---|---6---|---4-------|---2---2---|-
D|--7------|------9-|-----7-|-----7-|---5-----5-|-0-------0-|-
A|---------|-10-----|-9-----|-7-----|-5---5-----|-----0-----|-
E|---------|--------|-------|-------|-----------|-----------|-

Stave 2:

E|---10---|--------|-------|-------|-------0-----0-----0---|-
B|---7----|----8---|---7---|---5---|---7-------7-----7-----|-
G|------7-|----7---|---7---|---6---|---9-------------------|-
D|-7------|------9-|-----7-|-----7-|---8-----8-----8-----8-|-
A|--------|-10-----|-9-----|-7-----|-9---------------------|-
E|--------|--------|-------|-------|-----9-----9-----------|-

Stave 3:

E|------7-9-10---|-7---5---|-4-4-3-3-|-
B|------7--------|-5-------|-4-4-3-3-|-
G|------8--------|---------|-5-5-4-4-|-
D|------7------7-|---5-----|-4-4-3-3-|-
A|---------------|---------|-6-6-5-5-|-
E|--8-7---7------|-5-----5-|-4-4-3-3-|-

Stave 4:

E|--
B|--
G|--
D|--
A|--
E|--

http://www.guitartabcreator.com
Guitar Tab Creator is intended to store guitar tab created through the tool. It currently does not support in-line text editing. Any text you place in here will be lost. If you need to comment on your tab, please use the "Tab Notes" section located below.