Sound will begin in 5 seconds

Attack on Titan

01234567891011121314151617181920212223
E
B
G
D
A
E
B
0 1 2 3 4 5 6 7 8 9 10 11 12 13 14 15 16 17 18 19 20 21 22 23
Song Science #1: How Pros Use 6 Chords to Write Hit Songs
(/) Slide Up  (\) Slide Down  (h) Hammer On  (p) Pull Off  (b) Bend (r) Release (v) Vibrato

Stave 1:

E|-----------------------------------|--------------------------|--------------------------|--
B|-----------------------------------|--9--5--7-----------------|--9--5--7-----------------|--
G|--6--6--9--8--------6--6--9--8-----|-----------8--9--6--8--4--|-----------8--9--8--6--4--|--
D|--------------9--9--------------9--|--------------------------|--------------------------|--
A|-----------------------------------|--------------------------|--------------------------|--
E|-----------------------------------|--------------------------|--------------------------|--

Stave 2:

E|-------------------------------|-------------------------------|--------------------------|--
B|--12--8--10--------------------|--12--8--10--------------------|--------------------------|--
G|-------------11--12--9--11--7--|-------------11--12--11--9--8--|-----------0--------------|--
D|-------------------------------|-------------------------------|--------0-----2-----------|--
A|-------------------------------|-------------------------------|-----0-----------2--------|--
E|-------------------------------|-------------------------------|--0-----------------3--0--|--

Stave 3:

E|-----------------------|--------------------------|--------------------------|--
B|-----------------------|--------------------------|--------------------------|--
G|--4--6--3--4-----------|--8--4--6--3--4-----------|--8--4--6--3--4-----------|--
D|--------------6--8--4--|-----------------8--6--4--|-----------------8--6--4--|--
A|-----------------------|--------------------------|--------------------------|--
E|-----------------------|--------------------------|--------------------------|--

Stave 4:

E|--------------------------|--
B|--8--4--6--3--4-----------|--
G|-----------------8--6--4--|--
D|--------------------------|--
A|--------------------------|--
E|--------------------------|--

Stave 5:

E|--------------------|----------------------------------------------|--
B|--------------------|----------------------------------------------|--
G|--------------------|----------------------------------------------|--
D|--6--6h8\9/8--6--5--|----------------------8------8--9------9--10--|--
A|--------------------|------10--11------11--------------------------|--
E|--------------------|--11----------11---------11--------11---------|--

Stave 6:

E|-----------------------------------------------------|--
B|-----------------------------------------------------|--
G|--6--6--6-----6--4--4--4-----4--6--6--6-----6--6--5--|--
D|-----------6--------------4--------------6-----------|--
A|-----------------------------------------------------|--
E|-----------------------------------------------------|--

Stave 7:

E|-----------------------------------|-----------------------------|--
B|-----------------------------------|-----------------------------|--
G|--6--6--9--8--------6--6--9--8-----|--6--6--9--8-----6--4--1--4--|--
D|--------------9--9--------------9--|--------------9--------------|--
A|-----------------------------------|-----------------------------|--
E|-----------------------------------|-----------------------------|--

Stave 8:

E|----------------------------------|--
B|----------------------------------|--
G|----------9--8--------------------|--
D|--11--11--------11--11--9------9--|--
A|---------------------------11-----|--
E|----------------------------------|--

Stave 9:

E|-----------------------------------|--------------------------------|--
B|-----------------------------------|--------------------------------|--
G|--6--6--9--8--------6--6--9--8-----|--6--6--9--8-----6--6--4--1--4--|--
D|--------------9--9--------------9--|--------------9-----------------|--
A|-----------------------------------|--------------------------------|--
E|-----------------------------------|--------------------------------|--

Stave 10:

E|-----------------------------|-----------------------------|-----------------------------------|--
B|-----------------------9--7--|-----------------------------|-----------------------------------|--
G|--6--6--9--8--6--8--4--------|--6--6--9--8-----6--4--1--4--|--6--6--9--8--------6--6--9--8-----|--
D|-----------------------------|--------------9--------------|--------------9--9--------------9--|--
A|-----------------------------|-----------------------------|-----------------------------------|--
E|-----------------------------|-----------------------------|-----------------------------------|--

Stave 11:

E|----------------------|--
B|----------------------|--
G|--6--6--9--8--6h4--6--|--
D|----------------------|--
A|----------------------|--
E|----------------------|--

http://www.guitartabcreator.com
Guitar Tab Creator is intended to store guitar tab created through the tool. It currently does not support in-line text editing. Any text you place in here will be lost. If you need to comment on your tab, please use the "Tab Notes" section located below.