Sound will begin in 5 seconds

Patrick Hunter's Fender Jazz Bass Demo Bassline

01234567891011121314151617181920212223
E
B
G
D
A
E
B
0 1 2 3 4 5 6 7 8 9 10 11 12 13 14 15 16 17 18 19 20 21 22 23
Song Science #1: How Pros Use 6 Chords to Write Hit Songs
(/) Slide Up  (\) Slide Down  (h) Hammer On  (p) Pull Off  (b) Bend (r) Release (v) Vibrato

Stave 1:

G|-------------7-------------------7-------------------7--------------------------------
D|-----5/7--9-----9--7-----5/7--9-----9--7-----5/7--9-----9--7--------------------------
A|--7-------------------5-------------------4-------------------3--3--3--3--3--3--3--2--
E|--------------------------------------------------------------------------------------

Stave 2:

G|-----------9-----------------7-----------------4-----------------------------
D|-----9--------9--------7--------7--------4--------4--------------------------
A|--7-----7--------7--5-----5--------5--2-----2--------2--3--3--3--3--3--2-----
E|--------------------------------------------------------------------------3--

Stave 3:

G|-----------9-----------------7-----------------4-----------------------------
D|-----9--------9--------7--------7--------4--------4--------------------------
A|--7-----7--------7--5-----5--------5--2-----2--------2--3--3--3--3--3--2-----
E|--------------------------------------------------------------------------3--

Stave 4:

G|--------------------------------------------------------------
D|-----2-----2-------4-----4-------5-----5---------7---------9--
A|--------------------------------------------------------------
E|--0-----0-----0/2-----2-----2/3-----3-----0/3/5-----0/5/7-----

Stave 5:

G|-------------9-----------------7-----------------4-----------------------------
D|-------9--------9--------7--------7--------4--------4--------------------------
A|----7-----7--------7--5-----5--------5--2-----2--------2--3--3--3--3--3--2-----
E|----------------------------------------------------------------------------3--

Stave 6:

G|-------------7-------------------7-------------------7--------9--9--9--9--9--9--9--7--
D|-----5/7--9-----9--7-----5/7--9-----9--7-----5/7--9-----9--7--------------------------
A|--7-------------------7-------------------7-------------------------------------------
E|--------------------------------------------------------------------------------------

Stave 7:

G|-------------7-------------------7-------------------7-----------------------------
D|-----5/7--9-----9--7-----5/7--9-----9--7-----5/7--9-----9--7-----------------------
A|--7-------------------5-------------------4-------------------3--3--3--3--3--3--2--
E|-----------------------------------------------------------------------------------

Stave 8:

G|-------------7-------------------7-------------------7-----------------------------
D|-----5/7--9-----9--7-----5/7--9-----9--7-----5/7--9-----9--7-----------------------
A|--7-------------------5-------------------4-------------------3--3--3--3--3--3--2--
E|-----------------------------------------------------------------------------------

http://www.guitartabcreator.com
Guitar Tab Creator is intended to store guitar tab created through the tool. It currently does not support in-line text editing. Any text you place in here will be lost. If you need to comment on your tab, please use the "Tab Notes" section located below.