Sound will begin in 5 seconds

Crying out for love

01234567891011121314151617181920212223
E
B
G
D
A
E
B
0 1 2 3 4 5 6 7 8 9 10 11 12 13 14 15 16 17 18 19 20 21 22 23
Song Science #1: How Pros Use 6 Chords to Write Hit Songs
(/) Slide Up  (\) Slide Down  (h) Hammer On  (p) Pull Off  (b) Bend (r) Release (v) Vibrato

Stave 1:

E|-----8--10b11b10--8------------------------8--10b11b10--8--15--15b16b15--
B|--8------------------11--8--11--8--8----8--------------------------------
G|-------------------------------------------------------------------------
D|-------------------------------------------------------------------------
A|-------------------------------------------------------------------------
E|-------------------------------------------------------------------------

Stave 2:

E|-----8--10b11b10--8----------------------------------------8--11--10--10--10--10--
B|--8------------------11--8--11--8--8--------------------9---------12--12--12--12--
G|----------------------------------------10b11b10p8--10------------10--10--10--10--
D|----------------------------------------------------------------------------------
A|----------------------------------------------------------------------------------
E|----------------------------------------------------------------------------------

Stave 3:

E|--3--|--3--|--3--|--3--|--3--|--3--|--1--|--3--3--3--3--
B|--4--|--3--|--4--|--3--|--4--|--3--|--1--|--3--3--3--3--
G|--5--|--3--|--5--|--3--|--5--|--3--|--1--|--4--4--4--4--
D|--5--|--5--|--5--|--5--|--5--|--5--|--3--|--5--5--5--5--
A|--3--|--5--|--3--|--5--|--3--|--5--|--3--|--5--5--5--5--
E|-----|--3--|-----|--3--|-----|--3--|--1--|--3--3--3--3--

Stave 4:

E|---------------------------------------------------------------------------------
B|---------8--8--------------------8--8----8---------------------------------------
G|--10b11--------11r10p8----10b11-------------11r10p8----10b11b10b11--10p8------8--
D|--------------------------------------------------------------------------10-----
A|---------------------------------------------------------------------------------
E|---------------------------------------------------------------------------------

Stave 5:

E|------------------------------
B|------------------------------
G|---------10--10---------------
D|--10/12----------12p10\8------
A|--------------------------10--
E|------------------------------

http://www.guitartabcreator.com
Guitar Tab Creator is intended to store guitar tab created through the tool. It currently does not support in-line text editing. Any text you place in here will be lost. If you need to comment on your tab, please use the "Tab Notes" section located below.