SOLO

Chords
01234567891011121314151617181920212223
E
B
G
D
A
E
B
0 1 2 3 4 5 6 7 8 9 10 11 12 13 14 15 16 17 18 19 20 21 22 23
(/) Slide Up  (\) Slide Down  (h) Hammer On  (p) Pull Off  (b) Bend (r) Release (v) Vibrato


E|--------------------------------------------------------
B|-----------8--5-----------5-----------8--5--------------
G|--5--7--5--------7--5--7-----5--7--5--------7--5--7-----
D|-----------------------------------------------------7--
A|--------------------------------------------------------
E|--------------------------------------------------------



E|-----------7--5-----------10--8--------------------
B|--5--8--5--------8--5--8---------8--5--8-----------
G|------------------------------------------7--5-----
D|------------------------------------------------7--
A|---------------------------------------------------
E|---------------------------------------------------
							http://www.guitartabcreator.com
[[],[],[],[],[],[]]

Member for

8 years 8 months
Submitted by tomer007007 on Thu, 2011-09-22 08:21