Sound will begin in 5 seconds

Валентин Стрыкало - Ты не такая (acoustic)

Chords
01234567891011121314151617181920212223
E
B
G
D
A
E
B
0 1 2 3 4 5 6 7 8 9 10 11 12 13 14 15 16 17 18 19 20 21 22 23
Song Science #1: How Pros Use 6 Chords to Write Hit Songs
(/) Slide Up  (\) Slide Down  (h) Hammer On  (p) Pull Off  (b) Bend (r) Release (v) Vibrato

Stave 1:

E|----------------------------------------------------------
B|---------11-----9h11------11-----11---------9h11------11--
G|-----11---------------11-------------11-----------11------
D|----------------------------------------------------------
A|--9----------9----------------8----------8----------------
E|----------------------------------------------------------

Stave 2:

E|-------------------------------------------------------------
B|----------11------9h11------11-----12---------11---------11--
G|------11----------------11-------------11---------11---------
D|--------------------------------9----------9----------9------
A|-------------------------------------------------------------
E|--11----------11---------------------------------------------

Stave 3:

E|--------------------------------------------------------
B|----------------11--------------------------7-----------
G|---------11---------11------11--------8--------8-----8--
D|-----11-----------------11---------8--------------------
A|--9----------9------------------6--------6--------6-----
E|--------------------------------------------------------

Stave 4:

E|-------------------------------------------------------
B|-------------------------------------------------------
G|--------------8-------------------------10-------------
D|--------9--------9-----9---------11---------11-----11--
A|-----9--------------9--------11------------------------
E|--7--------7--------------9----------9----------9------

Stave 5:

E|-----
B|-----
G|-----
D|-----
A|-----
E|--2--

Stave 6:

E|-------------------------------------------------------------
B|----------------11-----------------11---------11---------11--
G|---------11---------11------11---------10---------10---------
D|-----11-----------------11------8----------8----------8------
A|--9----------9-----------------------------------------------
E|-------------------------------------------------------------

Stave 7:

E|--------------------------------------------------
B|--------------8-----------------------------------
G|--------8--------8-----8--------------8-----------
D|-----8--------------8-----------9--------9-----9--
A|--6--------6-----------------9--------------------
E|--------------------------7--------7--------7-----

Stave 8:

E|-------------------------------------------------
B|-------------------------------------------------
G|-----11---------11---------11---------11---------
D|---------11---------11---------11---------11-----
A|--9----------9----------9----------9----------9--
E|-------------------------------------------------

Stave 9:

E|----------------------x----------------------------------2-----x--------
B|----------9--7--------7----------------------------------2-----x--------
G|----------------6-----8-----1/4-----3-----1-----------x--3-----x--------
D|-------8--------------9-------------------------4-----x--4-----x--------
A|--5/9-----------------9----------------------------------4-----x--0--9--
E|----------------------x----------------------------------2-----x--------

http://www.guitartabcreator.com
Guitar Tab Creator is intended to store guitar tab created through the tool. It currently does not support in-line text editing. Any text you place in here will be lost. If you need to comment on your tab, please use the "Tab Notes" section located below.