Sound will begin in 5 seconds

Soju

01234567891011121314151617181920212223
E
B
G
D
A
E
B
0 1 2 3 4 5 6 7 8 9 10 11 12 13 14 15 16 17 18 19 20 21 22 23
Song Science #1: How Pros Use 6 Chords to Write Hit Songs
(/) Slide Up  (\) Slide Down  (h) Hammer On  (p) Pull Off  (b) Bend (r) Release (v) Vibrato

Stave 1:

E|-------
B|-------
G|-------
D|--4/9--
A|-------
E|-------

Stave 2:

E|-----------------
B|-----------------
G|-----------------
D|-----12----------
A|--9--10--12--14--
E|--7------10--12--

Stave 3:

E|----------|----------------|--------------------
B|----------|----------------|--------------------
G|----------|----------------|--------------------
D|----------|----------------|--------12--12--12--
A|----9--9--|--9--9--12--11--|--9--9--10--10--10--
E|----7--7--|--7--7--10--9---|--7--7--------------

Stave 4:

E|-----------------|-------------------------------------|--
B|-----------------|-------------------------------------|--
G|-----------------|-------------------------------------|--
D|--14--12---------|--14--12-----------------------------|--
A|--12--10--9--12--|--12--10--9--------------------------|--
E|----------7--10--|----------7--7--7--7--7--7--7--7--7--|--

Stave 5:

E|--------------
B|--------------
G|--------------
D|--7-----4-----
A|--5--7--2--5--
E|-----5-----3--

Stave 6:

E|------------------------------------------------------|--
B|------------------------------------------------------|--
G|--14p12--12--12\11--11--11\9--9--9\7--7--7\6--6\4--4--|--
D|------------------------------------------------------|--
A|------------------------------------------------------|--
E|------------------------------------------------------|--

Stave 7:

E|--------------------------------------------------------------------|--
B|-----12-----12-----12-----12-----12-----12------15------15------15--|--
G|--------------------------------------------------------------------|--
D|--9------9------9------9------9------9------12------12------12------|--
A|--------------------------------------------------------------------|--
E|--------------------------------------------------------------------|--

Stave 8:

E|------------------------------------------------------------------------|--
B|-----12-----12-----12-----12-----12---------18------18------18------18--|--
G|------------------------------------------------------------------------|--
D|--9------9------9------9------9------9--15------15------15------15------|--
A|------------------------------------------------------------------------|--
E|------------------------------------------------------------------------|--

Stave 9:

E|-----------------
B|-----------------
G|-----------------
D|-----7--9--------
A|--9--5--7--5--7--
E|--7--------3--5--

http://www.guitartabcreator.com
Guitar Tab Creator is intended to store guitar tab created through the tool. It currently does not support in-line text editing. Any text you place in here will be lost. If you need to comment on your tab, please use the "Tab Notes" section located below.