Sound will begin in 5 seconds

Flower Ska

01234567891011121314151617181920212223
E
B
G
D
A
E
B
0 1 2 3 4 5 6 7 8 9 10 11 12 13 14 15 16 17 18 19 20 21 22 23
Song Science #1: How Pros Use 6 Chords to Write Hit Songs
(/) Slide Up  (\) Slide Down  (h) Hammer On  (p) Pull Off  (b) Bend (r) Release (v) Vibrato

Stave 1:

E|--------------------------------------------------------------------------------------------------
B|--------------------------------------------------------------------------------------------------
G|--------------------------------------------------------------------------------------------------
D|--------------------------------------------------------------------------------------------------
A|--0--0--7--7--5--5--4--4--5--5--4--4--2--2--4--4--------4--4--2--2--4--4--------4--4--2--2--4--4--
E|--------------------------------------------------2--2--------------------3--3--------------------

Stave 2:

E|-----------------------------------------------------------------------------------
B|-----------------------------------------------------------------------------------
G|-----------------------------------------------------------------------------------
D|-----------------------------------------------------------------7--7--7--7--7--7--
A|--0--0--7--7--5--5--4--4--5--5--4--4--2--2--4--4--4--4--4--4--4--5--5--5--5--5--5--
E|-----------------------------------------------2--2--2--2--2--2--------------------

Stave 3:

E|-----------------------------------------------------------------------------------------
B|-----------------------------------------------------------------------------------------
G|-----------------------------------------------------------------------------------------
D|-----------------------------------------------------------------------------------------
A|--0--0--7--7--5--5--4--4--5--5--4--4--2--2--4--4--4--4--4--4--4--4--5--5--5--5--5--5--5--
E|--------------------------------------------------2--2--2--2--2--2--3--3--3--3--3--3--3--

Stave 4:

E|----5--5--2--3--
B|----5--5--2--3--
G|----6--6--2--4--
D|----7--7--4--5--
A|----------------
E|----------------

Stave 5:

E|-------------------------------------------------
B|-------------------------------------------------
G|-------------------------------------------------
D|-------------------7--7--------------------------
A|--7--7--7--7--4--4--5--5--7--7--7--7--4--4--5--5--
E|--5--5--5--5--2--2--------5--5--5--5--2--2--3--3--

Stave 6:

E|--------------------------
B|--------------------------
G|--------------------------
D|-----9--7--6--7--6--4--6--
A|--7--7--5--4--5--4--2--4--
E|--5-----------------------

Stave 7:

E|----
B|----
G|----
D|----
A|----
E|----

http://www.guitartabcreator.com
Guitar Tab Creator is intended to store guitar tab created through the tool. It currently does not support in-line text editing. Any text you place in here will be lost. If you need to comment on your tab, please use the "Tab Notes" section located below.