Sound will begin in 5 seconds

I Hung My Head Gtr

01234567891011121314151617181920212223
E
B
G
D
A
E
B
0 1 2 3 4 5 6 7 8 9 10 11 12 13 14 15 16 17 18 19 20 21 22 23
Song Science #1: How Pros Use 6 Chords to Write Hit Songs
(/) Slide Up  (\) Slide Down  (h) Hammer On  (p) Pull Off  (b) Bend (r) Release (v) Vibrato

(W|WW) Whole (H|HH) Half (Q|QQ) Quarter (E|EE) 8th (S|SS) 16th (T|TT) 32nd (X|XX) 64th

Stave 1:
t: E E E E E Q Q E E E E E Q Q E E E E E Q Q E E E E E Q Q
E|-----------------------|-----------1--3--------|-----------------------|-----------1--3--------|--
B|-----------1--3--------|--4-----4--------------|-----------------------|--4-----4--------------|--
G|--3-----3--------------|-----3-----------------|-----------2--3--------|-----3-----------------|--
D|-----3-----------------|-----------------------|--5-----5--------------|-----------------------|--
A|-----------------1-----|-----------------6--3--|-----5-----------------|-----------------6--5--|--
E|--------------------3--|-----------------------|-----------------3--6--|-----------------------|--

Stave 2:
t: E E E E E Q Q E E E E E Q Q E E E E E Q Q E E E E E Q Q
E|-----------------------|-----------------------|-----------------------|-----------------------|--
B|--1-----1--3--4--------|--------------1--------|-----------------------|-----------1--3--------|--
G|-----0-----------------|--2-----2--3-----------|-----------0--2--------|--3-----3--------------|--
D|-----------------------|-----1-----------------|--3-----3--------------|-----3-----------------|--
A|-----------------3--1--|-----------------0-----|-----3--------------0--|-----------------1--3--|--
E|-----------------------|--------------------3--|-----------------1-----|-----------------------|--

Stave 3:
t: E E E E E Q Q E E E E E Q Q E E E E E Q Q E E E E E Q Q
E|-----------1--3--------|-----------------------|-----------------------|-----------1--3--------|--
B|--4-----4--------------|-----------------------|-----------1--3--------|--4-----4--------------|--
G|-----3-----------------|-----------2--3--------|--3-----3--------------|-----3-----------------|--
D|-----------------1-----|--5-----5--------------|-----3-----------------|-----------------1-----|--
A|--------------------3--|-----5--------------6--|-----------------1-----|--------------------3--|--
E|-----------------------|-----------------3-----|--------------------3--|-----------------------|--

Stave 4:
t: E E E E E Q Q E E E E E Q Q
E|-----------------------|-----------1--3--------|--
B|-----------1--3--------|--4-----4--------------|--
G|--3-----3--------------|-----3-----------------|--
D|-----3-----------------|-----------------1-----|--
A|-----------------1-----|--------------------3--|--
E|--------------------3--|-----------------------|--

http://www.guitartabcreator.com
Guitar Tab Creator is intended to store guitar tab created through the tool. It currently does not support in-line text editing. Any text you place in here will be lost. If you need to comment on your tab, please use the "Tab Notes" section located below.